  0
SECTION
  2
HEADER
  9
$ACADVER
  1
AC1006
  9
$AXISMODE
 70
     0
  9
$AXISUNIT
 10
0.0625
 20
0.0625
  9
$CECOLOR
 62
0
  9
$CELTYPE
  6
CONTINUOUS
  9
$CLAYER
  8
LAYER1
  9
$EXTMIN
 10
0
 20
0
  9
$EXTMAX
 10
7.6667
 20
10.8728
  9
$LIMMIN
 10
0
 20
0
  9
$LIMMAX
 10
7.6667
 20
10.8728
  9
$GRIDMODE
 70
     0
  9
$GRIDUNIT
 10
0.125
 20
0.125
  9
$MIRRTEXT
 70
     1
  9
$SNAPMODE
 70
     1
  9
$SNAPUNIT
 10
0.125
 20
0
  9
$SNAPSTYLE
 70
     0
  9
$SPLINESEGS
 70
     8
  9
$SPLINETYPE
 70
     6
  0
ENDSEC
  0
SECTION
  2
TABLES
  0TABLE  2VPORT 70     2  0VPORT  2*ACTIVE 70     0 100.0 200.0 111.0 211.0 1213.01087 224.5 130.0 230.0 141.0 241.0 150.0 250.0 160.0 260.0 361.0 170.0 270.0 370.0 409.0 412.891304 4250.0 430.0 440.0 500.0 510.0 71     0 72   100 73     1 74     1 75     0 76     0 77     0 78     0  0ENDTAB
  0
TABLE
  2
LTYPE
 70
     1
  0
LTYPE
  2
CONTINUOUS
 70
    64
  3
Descriptive Text
 72
    65
 73
     0
 40
0
  0
ENDTAB
  0
TABLE
  2
LAYER
 70
     1
  0
LAYER
  2
LAYER1
 70
     0
 62
     7
  6
CONTINUOUS
  0
ENDTAB
  0TABLE  2STYLE 70     1  0STYLE  2STANDARD 70     0 400.0 411.0 500.0 71     0 420.2  3txt  4  0ENDTAB
  0
TABLE
  2
VIEW
 70
     0
  0
ENDTAB
  0
TABLE
  2
UCS
 70
     0
  0
ENDTAB
  0
TABLE
  2
DWGMGR
 70
     0
  0
ENDTAB
  0
ENDSEC
  0
SECTION
  2
BLOCKS
  0
BLOCK
  8
LAYER1
  2
Group1
 70
     0
 10
0
 20
0
 30
0
  0
LINE
  8
LAYER1
  6
CONTINUOUS
 62
     7
 10
0.2083
 20
10.5256
 30
0
 11
4.7083
 21
10.5256
 31
0
  0
LINE
  8
LAYER1
  6
CONTINUOUS
 62
     7
 10
1.1806
 20
8.5256
 30
0
 11
1.1806
 21
8.1923
 31
0
  0
LINE
  8
LAYER1
  6
CONTINUOUS
 62
     7
 10
1.1806
 20
8.5256
 30
0
 11
1.0417
 21
8.5256
 31
0
  0
LINE
  8
LAYER1
  6
CONTINUOUS
 62
     7
 10
1.1806
 20
8.1923
 30
0
 11
1.0417
 21
8.1923
 31
0
  0
POLYLINE
  8
LAYER1
  6
CONTINUOUS
 62
     7
 66
     1
 70
     0
 40
0.001
 41
0.001
  0
VERTEX
  8
LAYER1
 10
1.125
 20
8.4839
 30
0
 70
     0
  0
VERTEX
  8
LAYER1
 10
1.1389
 20
8.4839
 30
0
 70
     0
  0
VERTEX
  8
LAYER1
 10
1.1528
 20
8.4839
 30
0
 70
     0
  0
VERTEX
  8
LAYER1
 10
1.1528
 20
8.4839
 30
0
 70
     0
  0
VERTEX
  8
LAYER1
 10
1.1667
 20
8.4701
 30
0
 70
     0
  0
VERTEX
  8
LAYER1
 10
1.1667
 20
8.4562
 30
0
 70
     0
  0
VERTEX
  8
LAYER1
 10
1.1667
 20
8.4562
 30
0
 70
     0
  0
SEQEND
  0
POLYLINE
  8
LAYER1
  6
CONTINUOUS
 62
     7
 66
     1
 70
     0
 40
0.001
 41
0.001
  0
VERTEX
  8
LAYER1
 10
1.1667
 20
8.2617
 30
0
 70
     0
  0
VERTEX
  8
LAYER1
 10
1.1667
 20
8.2478
 30
0
 70
     0
  0
VERTEX
  8
LAYER1
 10
1.1667
 20
8.2478
 30
0
 70
     0
  0
VERTEX
  8
LAYER1
 10
1.1528
 20
8.2339
 30
0
 70
     0
  0
VERTEX
  8
LAYER1
 10
1.1389
 20
8.2201
 30
0
 70
     0
  0
VERTEX
  8
LAYER1
 10
1.1389
 20
8.2201
 30
0
 70
     0
  0
VERTEX
  8
LAYER1
 10
1.125
 20
8.2201
 30
0
 70
     0
  0
SEQEND
  0
LINE
  8
LAYER1
  6
CONTINUOUS
 62
     7
 10
1.1667
 20
8.4562
 30
0
 11
1.1667
 21
8.2617
 31
0
  0
POLYLINE
  8
LAYER1
  6
CONTINUOUS
 62
     7
 66
     1
 70
     0
 40
0.001
 41
0.001
  0
VERTEX
  8
LAYER1
 10
1.0694
 20
8.4978
 30
0
 70
     0
  0
VERTEX
  8
LAYER1
 10
1.0556
 20
8.4978
 30
0
 70
     0
  0
VERTEX
  8
LAYER1
 10
1.0417
 20
8.5117
 30
0
 70
     0
  0
SEQEND
  0
LINE
  8
LAYER1
  6
CONTINUOUS
 62
     7
 10
1.125
 20
8.4839
 30
0
 11
1.0694
 21
8.4978
 31
0
  0
LINE
  8
LAYER1
  6
CONTINUOUS
 62
     7
 10
1.0417
 20
8.5256
 30
0
 11
1.0417
 21
8.5117
 31
0
  0
POLYLINE
  8
LAYER1
  6
CONTINUOUS
 62
     7
 66
     1
 70
     0
 40
0.001
 41
0.001
  0
VERTEX
  8
LAYER1
 10
1.0417
 20
8.1923
 30
0
 70
     0
  0
VERTEX
  8
LAYER1
 10
1.0417
 20
8.1923
 30
0
 70
     0
  0
VERTEX
  8
LAYER1
 10
1.0556
 20
8.2062
 30
0
 70
     0
  0
VERTEX
  8
LAYER1
 10
1.0556
 20
8.2062
 30
0
 70
     0
  0
VERTEX
  8
LAYER1
 10
1.0556
 20
8.2062
 30
0
 70
     0
  0
VERTEX
  8
LAYER1
 10
1.0694
 20
8.2201
 30
0
 70
     0
  0
VERTEX
  8
LAYER1
 10
1.0694
 20
8.2201
 30
0
 70
     0
  0
SEQEND
  0
ENDBLK
  8
LAYER1
  0
BLOCK
  8
LAYER1
  2
Group2
 70
     0
 10
0
 20
0
 30
0
  0
LINE
  8
LAYER1
  6
CONTINUOUS
 62
     7
 10
1.125
 20
8.2201
 30
0
 11
1.0694
 21
8.2201
 31
0
  0
LINE
  8
LAYER1
  6
CONTINUOUS
 62
     7
 10
1.1667
 20
8.1923
 30
0
 11
1.125
 21
8.2201
 31
0
  0
LINE
  8
LAYER1
  6
CONTINUOUS
 62
     7
 10
1.1806
 20
8.3173
 30
0
 11
1.1667
 21
8.3312
 31
0
  0
LINE
  8
LAYER1
  6
CONTINUOUS
 62
     7
 10
1.1806
 20
8.4423
 30
0
 11
1.1667
 21
8.4562
 31
0
  0
LINE
  8
LAYER1
  6
CONTINUOUS
 62
     7
 10
1.125
 20
8.4839
 30
0
 11
1.0972
 21
8.5256
 31
0
  0
LINE
  8
LAYER1
  6
CONTINUOUS
 62
     7
 10
1.125
 20
8.1923
 30
0
 11
1.0833
 21
8.2201
 31
0
  0
LINE
  8
LAYER1
  6
CONTINUOUS
 62
     7
 10
1.1806
 20
8.2617
 30
0
 11
1.1667
 21
8.2756
 31
0
  0
LINE
  8
LAYER1
  6
CONTINUOUS
 62
     7
 10
1.1806
 20
8.4006
 30
0
 11
1.1667
 21
8.4145
 31
0
  0
ENDBLK
  8
LAYER1
  0
BLOCK
  8
LAYER1
  2
Group3
 70
     0
 10
0
 20
0
 30
0
  0
INSERT
  8
LAYER1
  2
Group1
 10
0
 20
0
 30
0
  0
INSERT
  8
LAYER1
  2
Group2
 10
0
 20
0
 30
0
  0
ENDBLK
  8
LAYER1
  0
BLOCK
  8
LAYER1
  2
Group4
 70
     0
 10
0
 20
0
 30
0
  0
LINE
  8
LAYER1
  6
CONTINUOUS
 62
     7
 10
1.0833
 20
8.4978
 30
0
 11
1.0556
 21
8.5256
 31
0
  0
LINE
  8
LAYER1
  6
CONTINUOUS
 62
     7
 10
1.3194
 20
8.5395
 30
0
 11
0.9028
 21
8.5395
 31
0
  0
LINE
  8
LAYER1
  6
CONTINUOUS
 62
     7
 10
1.3194
 20
8.5395
 30
0
 11
1.3194
 21
8.4006
 31
0
  0
LINE
  8
LAYER1
  6
CONTINUOUS
 62
     7
 10
0.9028
 20
8.5395
 30
0
 11
0.9028
 21
8.4006
 31
0
  0
POLYLINE
  8
LAYER1
  6
CONTINUOUS
 62
     7
 66
     1
 70
     0
 40
0.001
 41
0.001
  0
VERTEX
  8
LAYER1
 10
1.2361
 20
8.5256
 30
0
 70
     0
  0
VERTEX
  8
LAYER1
 10
1.25
 20
8.5256
 30
0
 70
     0
  0
VERTEX
  8
LAYER1
 10
1.2778
 20
8.5117
 30
0
 70
     0
  0
VERTEX
  8
LAYER1
 10
1.2778
 20
8.5117
 30
0
 70
     0
  0
VERTEX
  8
LAYER1
 10
1.2917
 20
8.4978
 30
0
 70
     0
  0
VERTEX
  8
LAYER1
 10
1.2917
 20
8.4839
 30
0
 70
     0
  0
VERTEX
  8
LAYER1
 10
1.2917
 20
8.4839
 30
0
 70
     0
  0
SEQEND
  0
POLYLINE
  8
LAYER1
  6
CONTINUOUS
 62
     7
 66
     1
 70
     0
 40
0.001
 41
0.001
  0
VERTEX
  8
LAYER1
 10
0.9306
 20
8.4839
 30
0
 70
     0
  0
VERTEX
  8
LAYER1
 10
0.9306
 20
8.4839
 30
0
 70
     0
  0
VERTEX
  8
LAYER1
 10
0.9444
 20
8.5117
 30
0
 70
     0
  0
VERTEX
  8
LAYER1
 10
0.9444
 20
8.5117
 30
0
 70
     0
  0
VERTEX
  8
LAYER1
 10
0.9444
 20
8.5117
 30
0
 70
     0
  0
VERTEX
  8
LAYER1
 10
0.9722
 20
8.5256
 30
0
 70
     0
  0
VERTEX
  8
LAYER1
 10
0.9861
 20
8.5256
 30
0
 70
     0
  0
VERTEX
  8
LAYER1
 10
0.9861
 20
8.5256
 30
0
 70
     0
  0
SEQEND
  0
LINE
  8
LAYER1
  6
CONTINUOUS
 62
     7
 10
1.2361
 20
8.5256
 30
0
 11
0.9861
 21
8.5256
 31
0
  0
POLYLINE
  8
LAYER1
  6
CONTINUOUS
 62
     7
 66
     1
 70
     0
 40
0.001
 41
0.001
  0
VERTEX
  8
LAYER1
 10
1.3194
 20
8.4006
 30
0
 70
     0
  0
VERTEX
  8
LAYER1
 10
1.3194
 20
8.4006
 30
0
 70
     0
  0
VERTEX
  8
LAYER1
 10
1.3056
 20
8.4006
 30
0
 70
     0
  0
VERTEX
  8
LAYER1
 10
1.2917
 20
8.4006
 30
0
 70
     0
  0
VERTEX
  8
LAYER1
 10
1.2917
 20
8.4145
 30
0
 70
     0
  0
SEQEND
  0
LINE
  8
LAYER1
  6
CONTINUOUS
 62
     7
 10
1.2917
 20
8.4839
 30
0
 11
1.2917
 21
8.4145
 31
0
  0
POLYLINE
  8
LAYER1
  6
CONTINUOUS
 62
     7
 66
     1
 70
     0
 40
0.001
 41
0.001
  0
VERTEX
  8
LAYER1
 10
0.9306
 20
8.4145
 30
0
 70
     0
  0
VERTEX
  8
LAYER1
 10
0.9306
 20
8.4006
 30
0
 70
     0
  0
VERTEX
  8
LAYER1
 10
0.9306
 20
8.4006
 30
0
 70
     0
  0
VERTEX
  8
LAYER1
 10
0.9167
 20
8.4006
 30
0
 70
     0
  0
VERTEX
  8
LAYER1
 10
0.9028
 20
8.4006
 30
0
 70
     0
  0
VERTEX
  8
LAYER1
 10
0.9028
 20
8.4006
 30
0
 70
     0
  0
SEQEND
  0
ENDBLK
  8
LAYER1
  0
BLOCK
  8
LAYER1
  2
Group5
 70
     0
 10
0
 20
0
 30
0
  0
LINE
  8
LAYER1
  6
CONTINUOUS
 62
     7
 10
0.9306
 20
8.4839
 30
0
 11
0.9306
 21
8.4145
 31
0
  0
LINE
  8
LAYER1
  6
CONTINUOUS
 62
     7
 10
0.9028
 20
8.4423
 30
0
 11
0.9306
 21
8.4145
 31
0
  0
LINE
  8
LAYER1
  6
CONTINUOUS
 62
     7
 10
0.9306
 20
8.5395
 30
0
 11
0.9583
 21
8.5117
 31
0
  0
LINE
  8
LAYER1
  6
CONTINUOUS
 62
     7
 10
1.0694
 20
8.5395
 30
0
 11
1.0833
 21
8.5256
 31
0
  0
LINE
  8
LAYER1
  6
CONTINUOUS
 62
     7
 10
1.1944
 20
8.5395
 30
0
 11
1.2083
 21
8.5256
 31
0
  0
LINE
  8
LAYER1
  6
CONTINUOUS
 62
     7
 10
1.2917
 20
8.4423
 30
0
 11
1.3194
 21
8.4145
 31
0
  0
LINE
  8
LAYER1
  6
CONTINUOUS
 62
     7
 10
0.9028
 20
8.5256
 30
0
 11
0.9306
 21
8.4978
 31
0
  0
LINE
  8
LAYER1
  6
CONTINUOUS
 62
     7
 10
1.0139
 20
8.5395
 30
0
 11
1.0417
 21
8.5256
 31
0
  0
LINE
  8
LAYER1
  6
CONTINUOUS
 62
     7
 10
1.1528
 20
8.5395
 30
0
 11
1.1667
 21
8.5256
 31
0
  0
ENDBLK
  8
LAYER1
  0
BLOCK
  8
LAYER1
  2
Group6
 70
     0
 10
0
 20
0
 30
0
  0
INSERT
  8
LAYER1
  2
Group4
 10
0
 20
0
 30
0
  0
INSERT
  8
LAYER1
  2
Group5
 10
0
 20
0
 30
0
  0
ENDBLK
  8
LAYER1
  0
BLOCK
  8
LAYER1
  2
Group7
 70
     0
 10
0
 20
0
 30
0
  0
INSERT
  8
LAYER1
  2
Group3
 10
0
 20
0
 30
0
  0
INSERT
  8
LAYER1
  2
Group6
 10
0
 20
0
 30
0
  0
ENDBLK
  8
LAYER1
  0
BLOCK
  8
LAYER1
  2
Group8
 70
     0
 10
0
 20
0
 30
0
  0
LINE
  8
LAYER1
  6
CONTINUOUS
 62
     7
 10
1.2917
 20
8.5395
 30
0
 11
1.3194
 21
8.5117
 31
0
  0
LINE
  8
LAYER1
  6
CONTINUOUS
 62
     7
 10
1.2778
 20
9.8589
 30
0
 11
0.9444
 21
9.8589
 31
0
  0
LINE
  8
LAYER1
  6
CONTINUOUS
 62
     7
 10
1.2778
 20
9.8589
 30
0
 11
1.2778
 21
9.7339
 31
0
  0
LINE
  8
LAYER1
  6
CONTINUOUS
 62
     7
 10
0.9444
 20
9.8589
 30
0
 11
0.9444
 21
9.7339
 31
0
  0
POLYLINE
  8
LAYER1
  6
CONTINUOUS
 62
     7
 66
     1
 70
     0
 40
0.001
 41
0.001
  0
VERTEX
  8
LAYER1
 10
1.2083
 20
9.8451
 30
0
 70
     0
  0
VERTEX
  8
LAYER1
 10
1.2222
 20
9.8451
 30
0
 70
     0
  0
VERTEX
  8
LAYER1
 10
1.2361
 20
9.8451
 30
0
 70
     0
  0
VERTEX
  8
LAYER1
 10
1.2361
 20
9.8451
 30
0
 70
     0
  0
VERTEX
  8
LAYER1
 10
1.2361
 20
9.8312
 30
0
 70
     0
  0
VERTEX
  8
LAYER1
 10
1.25
 20
9.8173
 30
0
 70
     0
  0
VERTEX
  8
LAYER1
 10
1.25
 20
9.8173
 30
0
 70
     0
  0
SEQEND
  0
POLYLINE
  8
LAYER1
  6
CONTINUOUS
 62
     7
 66
     1
 70
     0
 40
0.001
 41
0.001
  0
VERTEX
  8
LAYER1
 10
0.9722
 20
9.8173
 30
0
 70
     0
  0
VERTEX
  8
LAYER1
 10
0.9722
 20
9.8173
 30
0
 70
     0
  0
VERTEX
  8
LAYER1
 10
0.9861
 20
9.8451
 30
0
 70
     0
  0
VERTEX
  8
LAYER1
 10
0.9861
 20
9.8451
 30
0
 70
     0
  0
VERTEX
  8
LAYER1
 10
1
 20
9.8451
 30
0
 70
     0
  0
VERTEX
  8
LAYER1
 10
1.0139
 20
9.8451
 30
0
 70
     0
  0
VERTEX
  8
LAYER1
 10
1.0139
 20
9.8451
 30
0
 70
     0
  0
VERTEX
  8
LAYER1
 10
1.0139
 20
9.8451
 30
0
 70
     0
  0
SEQEND
  0
LINE
  8
LAYER1
  6
CONTINUOUS
 62
     7
 10
1.2083
 20
9.8451
 30
0
 11
1.0139
 21
9.8451
 31
0
  0
POLYLINE
  8
LAYER1
  6
CONTINUOUS
 62
     7
 66
     1
 70
     0
 40
0.001
 41
0.001
  0
VERTEX
  8
LAYER1
 10
1.2639
 20
9.7339
 30
0
 70
     0
  0
VERTEX
  8
LAYER1
 10
1.25
 20
9.7339
 30
0
 70
     0
  0
VERTEX
  8
LAYER1
 10
1.25
 20
9.7478
 30
0
 70
     0
  0
SEQEND
  0
LINE
  8
LAYER1
  6
CONTINUOUS
 62
     7
 10
1.25
 20
9.8173
 30
0
 11
1.25
 21
9.7478
 31
0
  0
LINE
  8
LAYER1
  6
CONTINUOUS
 62
     7
 10
1.2778
 20
9.7339
 30
0
 11
1.2639
 21
9.7339
 31
0
  0
POLYLINE
  8
LAYER1
  6
CONTINUOUS
 62
     7
 66
     1
 70
     0
 40
0.001
 41
0.001
  0
VERTEX
  8
LAYER1
 10
0.9722
 20
9.7478
 30
0
 70
     0
  0
VERTEX
  8
LAYER1
 10
0.9722
 20
9.7339
 30
0
 70
     0
  0
VERTEX
  8
LAYER1
 10
0.9722
 20
9.7339
 30
0
 70
     0
  0
VERTEX
  8
LAYER1
 10
0.9583
 20
9.7339
 30
0
 70
     0
  0
VERTEX
  8
LAYER1
 10
0.9444
 20
9.7339
 30
0
 70
     0
  0
VERTEX
  8
LAYER1
 10
0.9444
 20
9.7339
 30
0
 70
     0
  0
SEQEND
  0
ENDBLK
  8
LAYER1
  0
BLOCK
  8
LAYER1
  2
Group9
 70
     0
 10
0
 20
0
 30
0
  0
LINE
  8
LAYER1
  6
CONTINUOUS
 62
     7
 10
0.9722
 20
9.8173
 30
0
 11
0.9722
 21
9.7478
 31
0
  0
LINE
  8
LAYER1
  6
CONTINUOUS
 62
     7
 10
0.9444
 20
9.8589
 30
0
 11
0.9722
 21
9.8173
 31
0
  0
LINE
  8
LAYER1
  6
CONTINUOUS
 62
     7
 10
1.0694
 20
9.8589
 30
0
 11
1.0833
 21
9.8451
 31
0
  0
LINE
  8
LAYER1
  6
CONTINUOUS
 62
     7
 10
1.1944
 20
9.8589
 30
0
 11
1.2083
 21
9.8451
 31
0
  0
LINE
  8
LAYER1
  6
CONTINUOUS
 62
     7
 10
1.25
 20
9.8173
 30
0
 11
1.2778
 21
9.7895
 31
0
  0
LINE
  8
LAYER1
  6
CONTINUOUS
 62
     7
 10
0.9444
 20
9.8034
 30
0
 11
0.9722
 21
9.7756
 31
0
  0
LINE
  8
LAYER1
  6
CONTINUOUS
 62
     7
 10
1.0139
 20
9.8589
 30
0
 11
1.0417
 21
9.8451
 31
0
  0
LINE
  8
LAYER1
  6
CONTINUOUS
 62
     7
 10
1.1528
 20
9.8589
 30
0
 11
1.1667
 21
9.8451
 31
0
  0
ENDBLK
  8
LAYER1
  0
BLOCK
  8
LAYER1
  2
Group10
 70
     0
 10
0
 20
0
 30
0
  0
INSERT
  8
LAYER1
  2
Group8
 10
0
 20
0
 30
0
  0
INSERT
  8
LAYER1
  2
Group9
 10
0
 20
0
 30
0
  0
ENDBLK
  8
LAYER1
  0
BLOCK
  8
LAYER1
  2
Group11
 70
     0
 10
0
 20
0
 30
0
  0
LINE
  8
LAYER1
  6
CONTINUOUS
 62
     7
 10
1.25
 20
9.7756
 30
0
 11
1.2778
 21
9.7478
 31
0
  0
POLYLINE
  8
LAYER1
  6
CONTINUOUS
 62
     7
 66
     1
 70
     0
 40
0.001
 41
0.001
  0
VERTEX
  8
LAYER1
 10
1.125
 20
9.8312
 30
0
 70
     0
  0
VERTEX
  8
LAYER1
 10
1.1389
 20
9.8312
 30
0
 70
     0
  0
VERTEX
  8
LAYER1
 10
1.1389
 20
9.8173
 30
0
 70
     0
  0
VERTEX
  8
LAYER1
 10
1.1389
 20
9.8173
 30
0
 70
     0
  0
VERTEX
  8
LAYER1
 10
1.1528
 20
9.8034
 30
0
 70
     0
  0
VERTEX
  8
LAYER1
 10
1.1528
 20
9.7895
 30
0
 70
     0
  0
VERTEX
  8
LAYER1
 10
1.1528
 20
9.7895
 30
0
 70
     0
  0
SEQEND
  0
POLYLINE
  8
LAYER1
  6
CONTINUOUS
 62
     7
 66
     1
 70
     0
 40
0.001
 41
0.001
  0
VERTEX
  8
LAYER1
 10
1.1528
 20
9.6506
 30
0
 70
     0
  0
VERTEX
  8
LAYER1
 10
1.1528
 20
9.6367
 30
0
 70
     0
  0
VERTEX
  8
LAYER1
 10
1.1528
 20
9.6367
 30
0
 70
     0
  0
VERTEX
  8
LAYER1
 10
1.1389
 20
9.6228
 30
0
 70
     0
  0
VERTEX
  8
LAYER1
 10
1.125
 20
9.6228
 30
0
 70
     0
  0
SEQEND
  0
LINE
  8
LAYER1
  6
CONTINUOUS
 62
     7
 10
1.1528
 20
9.7895
 30
0
 11
1.1528
 21
9.6506
 31
0
  0
POLYLINE
  8
LAYER1
  6
CONTINUOUS
 62
     7
 66
     1
 70
     0
 40
0.001
 41
0.001
  0
VERTEX
  8
LAYER1
 10
1.0556
 20
9.8451
 30
0
 70
     0
  0
VERTEX
  8
LAYER1
 10
1.1667
 20
9.8451
 30
0
 70
     0
  0
VERTEX
  8
LAYER1
 10
1.1667
 20
9.5951
 30
0
 70
     0
  0
SEQEND
  0
LINE
  8
LAYER1
  6
CONTINUOUS
 62
     7
 10
1.0556
 20
9.5951
 30
0
 11
1.1667
 21
9.5951
 31
0
  0
POLYLINE
  8
LAYER1
  6
CONTINUOUS
 62
     7
 66
     1
 70
     0
 40
0.001
 41
0.001
  0
VERTEX
  8
LAYER1
 10
1.0556
 20
9.8312
 30
0
 70
     0
  0
VERTEX
  8
LAYER1
 10
1.0556
 20
9.8312
 30
0
 70
     0
  0
VERTEX
  8
LAYER1
 10
1.0556
 20
9.8451
 30
0
 70
     0
  0
SEQEND
  0
LINE
  8
LAYER1
  6
CONTINUOUS
 62
     7
 10
1.125
 20
9.8312
 30
0
 11
1.0556
 21
9.8312
 31
0
  0
POLYLINE
  8
LAYER1
  6
CONTINUOUS
 62
     7
 66
     1
 70
     0
 40
0.001
 41
0.001
  0
VERTEX
  8
LAYER1
 10
1.0556
 20
9.6089
 30
0
 70
     0
  0
VERTEX
  8
LAYER1
 10
1.0556
 20
9.6089
 30
0
 70
     0
  0
VERTEX
  8
LAYER1
 10
1.0556
 20
9.6089
 30
0
 70
     0
  0
SEQEND
  0
LINE
  8
LAYER1
  6
CONTINUOUS
 62
     7
 10
1.0556
 20
9.6089
 30
0
 11
1.0556
 21
9.5951
 31
0
  0
ENDBLK
  8
LAYER1
  0
BLOCK
  8
LAYER1
  2
Group12
 70
     0
 10
0
 20
0
 30
0
  0
LINE
  8
LAYER1
  6
CONTINUOUS
 62
     7
 10
1.125
 20
9.6228
 30
0
 11
1.0556
 21
9.6089
 31
0
  0
LINE
  8
LAYER1
  6
CONTINUOUS
 62
     7
 10
1.1528
 20
9.5951
 30
0
 11
1.1667
 21
9.6089
 31
0
  0
LINE
  8
LAYER1
  6
CONTINUOUS
 62
     7
 10
1.1528
 20
9.7339
 30
0
 11
1.1667
 21
9.7478
 31
0
  0
LINE
  8
LAYER1
  6
CONTINUOUS
 62
     7
 10
1.125
 20
9.8312
 30
0
 11
1.1389
 21
9.8451
 31
0
  0
LINE
  8
LAYER1
  6
CONTINUOUS
 62
     7
 10
1.0694
 20
9.5951
 30
0
 11
1.0833
 21
9.6228
 31
0
  0
LINE
  8
LAYER1
  6
CONTINUOUS
 62
     7
 10
1.1528
 20
9.6923
 30
0
 11
1.1667
 21
9.7062
 31
0
  0
ENDBLK
  8
LAYER1
  0
BLOCK
  8
LAYER1
  2
Group13
 70
     0
 10
0
 20
0
 30
0
  0
INSERT
  8
LAYER1
  2
Group11
 10
0
 20
0
 30
0
  0
INSERT
  8
LAYER1
  2
Group12
 10
0
 20
0
 30
0
  0
ENDBLK
  8
LAYER1
  0
BLOCK
  8
LAYER1
  2
Group14
 70
     0
 10
0
 20
0
 30
0
  0
INSERT
  8
LAYER1
  2
Group10
 10
0
 20
0
 30
0
  0
INSERT
  8
LAYER1
  2
Group13
 10
0
 20
0
 30
0
  0
ENDBLK
  8
LAYER1
  0
BLOCK
  8
LAYER1
  2
Group15
 70
     0
 10
0
 20
0
 30
0
  0
LINE
  8
LAYER1
  6
CONTINUOUS
 62
     7
 10
1.1528
 20
9.8173
 30
0
 11
1.1667
 21
9.8312
 31
0
  0
LINE
  8
LAYER1
  6
CONTINUOUS
 62
     7
 10
1.1806
 20
7.1367
 30
0
 11
1.1806
 21
6.7201
 31
0
  0
LINE
  8
LAYER1
  6
CONTINUOUS
 62
     7
 10
1.1806
 20
7.1367
 30
0
 11
1.0417
 21
7.1367
 31
0
  0
LINE
  8
LAYER1
  6
CONTINUOUS
 62
     7
 10
1.1806
 20
6.7201
 30
0
 11
1.0417
 21
6.7201
 31
0
  0
POLYLINE
  8
LAYER1
  6
CONTINUOUS
 62
     7
 66
     1
 70
     0
 40
0.001
 41
0.001
  0
VERTEX
  8
LAYER1
 10
1.125
 20
7.0951
 30
0
 70
     0
  0
VERTEX
  8
LAYER1
 10
1.1389
 20
7.0951
 30
0
 70
     0
  0
VERTEX
  8
LAYER1
 10
1.1528
 20
7.0812
 30
0
 70
     0
  0
VERTEX
  8
LAYER1
 10
1.1528
 20
7.0812
 30
0
 70
     0
  0
VERTEX
  8
LAYER1
 10
1.1667
 20
7.0673
 30
0
 70
     0
  0
VERTEX
  8
LAYER1
 10
1.1667
 20
7.0534
 30
0
 70
     0
  0
VERTEX
  8
LAYER1
 10
1.1667
 20
7.0534
 30
0
 70
     0
  0
SEQEND
  0
POLYLINE
  8
LAYER1
  6
CONTINUOUS
 62
     7
 66
     1
 70
     0
 40
0.001
 41
0.001
  0
VERTEX
  8
LAYER1
 10
1.1667
 20
6.7895
 30
0
 70
     0
  0
VERTEX
  8
LAYER1
 10
1.1667
 20
6.7756
 30
0
 70
     0
  0
VERTEX
  8
LAYER1
 10
1.1667
 20
6.7756
 30
0
 70
     0
  0
VERTEX
  8
LAYER1
 10
1.1528
 20
6.7617
 30
0
 70
     0
  0
VERTEX
  8
LAYER1
 10
1.1389
 20
6.7478
 30
0
 70
     0
  0
VERTEX
  8
LAYER1
 10
1.1389
 20
6.7478
 30
0
 70
     0
  0
VERTEX
  8
LAYER1
 10
1.125
 20
6.7478
 30
0
 70
     0
  0
SEQEND
  0
LINE
  8
LAYER1
  6
CONTINUOUS
 62
     7
 10
1.1667
 20
7.0534
 30
0
 11
1.1667
 21
6.7895
 31
0
  0
POLYLINE
  8
LAYER1
  6
CONTINUOUS
 62
     7
 66
     1
 70
     0
 40
0.001
 41
0.001
  0
VERTEX
  8
LAYER1
 10
1.0556
 20
7.1089
 30
0
 70
     0
  0
VERTEX
  8
LAYER1
 10
1.0417
 20
7.1089
 30
0
 70
     0
  0
VERTEX
  8
LAYER1
 10
1.0417
 20
7.1228
 30
0
 70
     0
  0
SEQEND
  0
LINE
  8
LAYER1
  6
CONTINUOUS
 62
     7
 10
1.0417
 20
7.1367
 30
0
 11
1.0417
 21
7.1228
 31
0
  0
LINE
  8
LAYER1
  6
CONTINUOUS
 62
     7
 10
1.125
 20
7.0951
 30
0
 11
1.0556
 21
7.1089
 31
0
  0
POLYLINE
  8
LAYER1
  6
CONTINUOUS
 62
     7
 66
     1
 70
     0
 40
0.001
 41
0.001
  0
VERTEX
  8
LAYER1
 10
1.0417
 20
6.7201
 30
0
 70
     0
  0
VERTEX
  8
LAYER1
 10
1.0417
 20
6.7339
 30
0
 70
     0
  0
VERTEX
  8
LAYER1
 10
1.0556
 20
6.7478
 30
0
 70
     0
  0
SEQEND
  0
ENDBLK
  8
LAYER1
  0
BLOCK
  8
LAYER1
  2
Group16
 70
     0
 10
0
 20
0
 30
0
  0
LINE
  8
LAYER1
  6
CONTINUOUS
 62
     7
 10
1.125
 20
6.7478
 30
0
 11
1.0556
 21
6.7478
 31
0
  0
LINE
  8
LAYER1
  6
CONTINUOUS
 62
     7
 10
1.0833
 20
6.7201
 30
0
 11
1.0556
 21
6.7478
 31
0
  0
LINE
  8
LAYER1
  6
CONTINUOUS
 62
     7
 10
1.1806
 20
6.7478
 30
0
 11
1.1667
 21
6.7756
 31
0
  0
LINE
  8
LAYER1
  6
CONTINUOUS
 62
     7
 10
1.1806
 20
6.8728
 30
0
 11
1.1667
 21
6.9006
 31
0
  0
LINE
  8
LAYER1
  6
CONTINUOUS
 62
     7
 10
1.1806
 20
7.0117
 30
0
 11
1.1667
 21
7.0256
 31
0
  0
LINE
  8
LAYER1
  6
CONTINUOUS
 62
     7
 10
1.0972
 20
7.1089
 30
0
 11
1.0556
 21
7.1367
 31
0
  0
LINE
  8
LAYER1
  6
CONTINUOUS
 62
     7
 10
1.1667
 20
6.7201
 30
0
 11
1.1389
 21
6.7478
 31
0
  0
LINE
  8
LAYER1
  6
CONTINUOUS
 62
     7
 10
1.1806
 20
6.8312
 30
0
 11
1.1667
 21
6.8451
 31
0
  0
LINE
  8
LAYER1
  6
CONTINUOUS
 62
     7
 10
1.1806
 20
6.9701
 30
0
 11
1.1667
 21
6.9839
 31
0
  0
ENDBLK
  8
LAYER1
  0
BLOCK
  8
LAYER1
  2
Group17
 70
     0
 10
0
 20
0
 30
0
  0
INSERT
  8
LAYER1
  2
Group15
 10
0
 20
0
 30
0
  0
INSERT
  8
LAYER1
  2
Group16
 10
0
 20
0
 30
0
  0
ENDBLK
  8
LAYER1
  0
BLOCK
  8
LAYER1
  2
Group18
 70
     0
 10
0
 20
0
 30
0
  0
LINE
  8
LAYER1
  6
CONTINUOUS
 62
     7
 10
1.1806
 20
7.0951
 30
0
 11
1.1528
 21
7.1367
 31
0
  0
POLYLINE
  8
LAYER1
  6
CONTINUOUS
 62
     7
 66
     1
 70
     0
 40
0.001
 41
0.001
  0
VERTEX
  8
LAYER1
 10
0.8889
 20
7.0951
 30
0
 70
     0
  0
VERTEX
  8
LAYER1
 10
0.8889
 20
7.0951
 30
0
 70
     0
  0
VERTEX
  8
LAYER1
 10
0.9028
 20
7.1228
 30
0
 70
     0
  0
VERTEX
  8
LAYER1
 10
0.9028
 20
7.1228
 30
0
 70
     0
  0
VERTEX
  8
LAYER1
 10
0.9028
 20
7.1228
 30
0
 70
     0
  0
VERTEX
  8
LAYER1
 10
0.9167
 20
7.1367
 30
0
 70
     0
  0
VERTEX
  8
LAYER1
 10
0.9306
 20
7.1367
 30
0
 70
     0
  0
SEQEND
  0
POLYLINE
  8
LAYER1
  6
CONTINUOUS
 62
     7
 66
     1
 70
     0
 40
0.001
 41
0.001
  0
VERTEX
  8
LAYER1
 10
1.2917
 20
7.1367
 30
0
 70
     0
  0
VERTEX
  8
LAYER1
 10
1.3056
 20
7.1367
 30
0
 70
     0
  0
VERTEX
  8
LAYER1
 10
1.3194
 20
7.1228
 30
0
 70
     0
  0
VERTEX
  8
LAYER1
 10
1.3194
 20
7.1228
 30
0
 70
     0
  0
VERTEX
  8
LAYER1
 10
1.3333
 20
7.1089
 30
0
 70
     0
  0
VERTEX
  8
LAYER1
 10
1.3333
 20
7.0951
 30
0
 70
     0
  0
VERTEX
  8
LAYER1
 10
1.3333
 20
7.0951
 30
0
 70
     0
  0
SEQEND
  0
LINE
  8
LAYER1
  6
CONTINUOUS
 62
     7
 10
0.9306
 20
7.1367
 30
0
 11
1.2917
 21
7.1367
 31
0
  0
POLYLINE
  8
LAYER1
  6
CONTINUOUS
 62
     7
 66
     1
 70
     0
 40
0.001
 41
0.001
  0
VERTEX
  8
LAYER1
 10
0.8611
 20
7.1506
 30
0
 70
     0
  0
VERTEX
  8
LAYER1
 10
1.3611
 20
7.1506
 30
0
 70
     0
  0
VERTEX
  8
LAYER1
 10
1.3611
 20
6.9839
 30
0
 70
     0
  0
SEQEND
  0
LINE
  8
LAYER1
  6
CONTINUOUS
 62
     7
 10
0.8611
 20
7.1506
 30
0
 11
0.8611
 21
6.9839
 31
0
  0
POLYLINE
  8
LAYER1
  6
CONTINUOUS
 62
     7
 66
     1
 70
     0
 40
0.001
 41
0.001
  0
VERTEX
  8
LAYER1
 10
0.875
 20
6.9978
 30
0
 70
     0
  0
VERTEX
  8
LAYER1
 10
0.875
 20
6.9978
 30
0
 70
     0
  0
VERTEX
  8
LAYER1
 10
0.875
 20
6.9839
 30
0
 70
     0
  0
SEQEND
  0
LINE
  8
LAYER1
  6
CONTINUOUS
 62
     7
 10
0.8611
 20
6.9839
 30
0
 11
0.875
 21
6.9839
 31
0
  0
LINE
  8
LAYER1
  6
CONTINUOUS
 62
     7
 10
0.8889
 20
7.0951
 30
0
 11
0.875
 21
6.9978
 31
0
  0
POLYLINE
  8
LAYER1
  6
CONTINUOUS
 62
     7
 66
     1
 70
     0
 40
0.001
 41
0.001
  0
VERTEX
  8
LAYER1
 10
1.3472
 20
6.9839
 30
0
 70
     0
  0
VERTEX
  8
LAYER1
 10
1.3472
 20
6.9978
 30
0
 70
     0
  0
VERTEX
  8
LAYER1
 10
1.3472
 20
6.9978
 30
0
 70
     0
  0
SEQEND
  0
LINE
  8
LAYER1
  6
CONTINUOUS
 62
     7
 10
1.3472
 20
6.9839
 30
0
 11
1.3611
 21
6.9839
 31
0
  0
ENDBLK
  8
LAYER1
  0
BLOCK
  8
LAYER1
  2
Group19
 70
     0
 10
0
 20
0
 30
0
  0
LINE
  8
LAYER1
  6
CONTINUOUS
 62
     7
 10
1.3333
 20
7.0951
 30
0
 11
1.3472
 21
6.9978
 31
0
  0
LINE
  8
LAYER1
  6
CONTINUOUS
 62
     7
 10
1.3472
 20
7.0117
 30
0
 11
1.3611
 21
7.0395
 31
0
  0
LINE
  8
LAYER1
  6
CONTINUOUS
 62
     7
 10
1.3194
 20
7.1228
 30
0
 11
1.3472
 21
7.1506
 31
0
  0
LINE
  8
LAYER1
  6
CONTINUOUS
 62
     7
 10
1.1944
 20
7.1367
 30
0
 11
1.2083
 21
7.1506
 31
0
  0
LINE
  8
LAYER1
  6
CONTINUOUS
 62
     7
 10
1.0556
 20
7.1367
 30
0
 11
1.0694
 21
7.1506
 31
0
  0
LINE
  8
LAYER1
  6
CONTINUOUS
 62
     7
 10
0.8611
 20
7.0673
 30
0
 11
0.8889
 21
7.0951
 31
0
  0
LINE
  8
LAYER1
  6
CONTINUOUS
 62
     7
 10
0.9306
 20
7.1367
 30
0
 11
0.9444
 21
7.1506
 31
0
  0
LINE
  8
LAYER1
  6
CONTINUOUS
 62
     7
 10
1.3611
 20
6.9839
 30
0
 11
1.3611
 21
6.9978
 31
0
  0
LINE
  8
LAYER1
  6
CONTINUOUS
 62
     7
 10
1.3333
 20
7.0951
 30
0
 11
1.3611
 21
7.1228
 31
0
  0
LINE
  8
LAYER1
  6
CONTINUOUS
 62
     7
 10
1.2361
 20
7.1367
 30
0
 11
1.25
 21
7.1506
 31
0
  0
LINE
  8
LAYER1
  6
CONTINUOUS
 62
     7
 10
1.0972
 20
7.1367
 30
0
 11
1.125
 21
7.1506
 31
0
  0
LINE
  8
LAYER1
  6
CONTINUOUS
 62
     7
 10
0.8611
 20
7.0256
 30
0
 11
0.8889
 21
7.0395
 31
0
  0
ENDBLK
  8
LAYER1
  0
BLOCK
  8
LAYER1
  2
Group20
 70
     0
 10
0
 20
0
 30
0
  0
INSERT
  8
LAYER1
  2
Group18
 10
0
 20
0
 30
0
  0
INSERT
  8
LAYER1
  2
Group19
 10
0
 20
0
 30
0
  0
ENDBLK
  8
LAYER1
  0
BLOCK
  8
LAYER1
  2
Group21
 70
     0
 10
0
 20
0
 30
0
  0
INSERT
  8
LAYER1
  2
Group17
 10
0
 20
0
 30
0
  0
INSERT
  8
LAYER1
  2
Group20
 10
0
 20
0
 30
0
  0
ENDBLK
  8
LAYER1
  0
BLOCK
  8
LAYER1
  2
Group22
 70
     0
 10
0
 20
0
 30
0
  0
LINE
  8
LAYER1
  6
CONTINUOUS
 62
     7
 10
0.9722
 20
7.1367
 30
0
 11
0.9861
 21
7.1506
 31
0
  0
POLYLINE
  8
LAYER1
  6
CONTINUOUS
 62
     7
 66
     1
 70
     0
 40
0.001
 41
0.001
  0
VERTEX
  8
LAYER1
 10
1.1389
 20
5.5117
 30
0
 70
     0
  0
VERTEX
  8
LAYER1
 10
1.1528
 20
5.5117
 30
0
 70
     0
  0
VERTEX
  8
LAYER1
 10
1.1667
 20
5.4978
 30
0
 70
     0
  0
VERTEX
  8
LAYER1
 10
1.1667
 20
5.4978
 30
0
 70
     0
  0
VERTEX
  8
LAYER1
 10
1.1806
 20
5.4978
 30
0
 70
     0
  0
VERTEX
  8
LAYER1
 10
1.1806
 20
5.4839
 30
0
 70
     0
  0
VERTEX
  8
LAYER1
 10
1.1806
 20
5.4701
 30
0
 70
     0
  0
VERTEX
  8
LAYER1
 10
1.1806
 20
5.4701
 30
0
 70
     0
  0
SEQEND
  0
POLYLINE
  8
LAYER1
  6
CONTINUOUS
 62
     7
 66
     1
 70
     0
 40
0.001
 41
0.001
  0
VERTEX
  8
LAYER1
 10
1.1806
 20
5.1089
 30
0
 70
     0
  0
VERTEX
  8
LAYER1
 10
1.1806
 20
5.0951
 30
0
 70
     0
  0
VERTEX
  8
LAYER1
 10
1.1806
 20
5.0951
 30
0
 70
     0
  0
VERTEX
  8
LAYER1
 10
1.1667
 20
5.0812
 30
0
 70
     0
  0
VERTEX
  8
LAYER1
 10
1.1528
 20
5.0673
 30
0
 70
     0
  0
VERTEX
  8
LAYER1
 10
1.1528
 20
5.0673
 30
0
 70
     0
  0
VERTEX
  8
LAYER1
 10
1.1389
 20
5.0673
 30
0
 70
     0
  0
SEQEND
  0
LINE
  8
LAYER1
  6
CONTINUOUS
 62
     7
 10
1.1806
 20
5.4701
 30
0
 11
1.1806
 21
5.1089
 31
0
  0
POLYLINE
  8
LAYER1
  6
CONTINUOUS
 62
     7
 66
     1
 70
     0
 40
0.001
 41
0.001
  0
VERTEX
  8
LAYER1
 10
1.1944
 20
5.5395
 30
0
 70
     0
  0
VERTEX
  8
LAYER1
 10
1.1944
 20
5.0395
 30
0
 70
     0
  0
VERTEX
  8
LAYER1
 10
1.0278
 20
5.0395
 30
0
 70
     0
  0
SEQEND
  0
LINE
  8
LAYER1
  6
CONTINUOUS
 62
     7
 10
1.1944
 20
5.5395
 30
0
 11
1.0278
 21
5.5395
 31
0
  0
POLYLINE
  8
LAYER1
  6
CONTINUOUS
 62
     7
 66
     1
 70
     0
 40
0.001
 41
0.001
  0
VERTEX
  8
LAYER1
 10
1.0417
 20
5.5256
 30
0
 70
     0
  0
VERTEX
  8
LAYER1
 10
1.0278
 20
5.5256
 30
0
 70
     0
  0
VERTEX
  8
LAYER1
 10
1.0278
 20
5.5256
 30
0
 70
     0
  0
VERTEX
  8
LAYER1
 10
1.0278
 20
5.5256
 30
0
 70
     0
  0
SEQEND
  0
LINE
  8
LAYER1
  6
CONTINUOUS
 62
     7
 10
1.0278
 20
5.5395
 30
0
 11
1.0278
 21
5.5256
 31
0
  0
LINE
  8
LAYER1
  6
CONTINUOUS
 62
     7
 10
1.1389
 20
5.5117
 30
0
 11
1.0417
 21
5.5256
 31
0
  0
POLYLINE
  8
LAYER1
  6
CONTINUOUS
 62
     7
 66
     1
 70
     0
 40
0.001
 41
0.001
  0
VERTEX
  8
LAYER1
 10
1.0278
 20
5.0534
 30
0
 70
     0
  0
VERTEX
  8
LAYER1
 10
1.0278
 20
5.0534
 30
0
 70
     0
  0
VERTEX
  8
LAYER1
 10
1.0417
 20
5.0534
 30
0
 70
     0
  0
SEQEND
  0
LINE
  8
LAYER1
  6
CONTINUOUS
 62
     7
 10
1.0278
 20
5.0534
 30
0
 11
1.0278
 21
5.0395
 31
0
  0
ENDBLK
  8
LAYER1
  0
BLOCK
  8
LAYER1
  2
Group23
 70
     0
 10
0
 20
0
 30
0
  0
LINE
  8
LAYER1
  6
CONTINUOUS
 62
     7
 10
1.1389
 20
5.0673
 30
0
 11
1.0417
 21
5.0534
 31
0
  0
LINE
  8
LAYER1
  6
CONTINUOUS
 62
     7
 10
1.0556
 20
5.0534
 30
0
 11
1.0833
 21
5.0395
 31
0
  0
LINE
  8
LAYER1
  6
CONTINUOUS
 62
     7
 10
1.1667
 20
5.0812
 30
0
 11
1.1944
 21
5.0673
 31
0
  0
LINE
  8
LAYER1
  6
CONTINUOUS
 62
     7
 10
1.1806
 20
5.2062
 30
0
 11
1.1944
 21
5.1923
 31
0
  0
LINE
  8
LAYER1
  6
CONTINUOUS
 62
     7
 10
1.1806
 20
5.3451
 30
0
 11
1.1944
 21
5.3312
 31
0
  0
LINE
  8
LAYER1
  6
CONTINUOUS
 62
     7
 10
1.1111
 20
5.5395
 30
0
 11
1.1389
 21
5.5117
 31
0
  0
LINE
  8
LAYER1
  6
CONTINUOUS
 62
     7
 10
1.1806
 20
5.4701
 30
0
 11
1.1944
 21
5.4562
 31
0
  0
LINE
  8
LAYER1
  6
CONTINUOUS
 62
     7
 10
1.1389
 20
5.0673
 30
0
 11
1.1667
 21
5.0395
 31
0
  0
LINE
  8
LAYER1
  6
CONTINUOUS
 62
     7
 10
1.1806
 20
5.1645
 30
0
 11
1.1944
 21
5.1506
 31
0
  0
LINE
  8
LAYER1
  6
CONTINUOUS
 62
     7
 10
1.1806
 20
5.3034
 30
0
 11
1.1944
 21
5.2756
 31
0
  0
LINE
  8
LAYER1
  6
CONTINUOUS
 62
     7
 10
1.0694
 20
5.5395
 30
0
 11
1.0833
 21
5.5256
 31
0
  0
ENDBLK
  8
LAYER1
  0
BLOCK
  8
LAYER1
  2
Group24
 70
     0
 10
0
 20
0
 30
0
  0
INSERT
  8
LAYER1
  2
Group22
 10
0
 20
0
 30
0
  0
INSERT
  8
LAYER1
  2
Group23
 10
0
 20
0
 30
0
  0
ENDBLK
  8
LAYER1
  0
BLOCK
  8
LAYER1
  2
Group25
 70
     0
 10
0
 20
0
 30
0
  0
LINE
  8
LAYER1
  6
CONTINUOUS
 62
     7
 10
1.1806
 20
5.4284
 30
0
 11
1.1944
 21
5.4145
 31
0
  0
POLYLINE
  8
LAYER1
  6
CONTINUOUS
 62
     7
 66
     1
 70
     0
 40
0.001
 41
0.001
  0
VERTEX
  8
LAYER1
 10
0.8472
 20
5.4978
 30
0
 70
     0
  0
VERTEX
  8
LAYER1
 10
0.8472
 20
5.4978
 30
0
 70
     0
  0
VERTEX
  8
LAYER1
 10
0.8611
 20
5.5256
 30
0
 70
     0
  0
VERTEX
  8
LAYER1
 10
0.8611
 20
5.5256
 30
0
 70
     0
  0
VERTEX
  8
LAYER1
 10
0.8611
 20
5.5256
 30
0
 70
     0
  0
VERTEX
  8
LAYER1
 10
0.8889
 20
5.5395
 30
0
 70
     0
  0
VERTEX
  8
LAYER1
 10
0.8889
 20
5.5395
 30
0
 70
     0
  0
SEQEND
  0
POLYLINE
  8
LAYER1
  6
CONTINUOUS
 62
     7
 66
     1
 70
     0
 40
0.001
 41
0.001
  0
VERTEX
  8
LAYER1
 10
1.3333
 20
5.5395
 30
0
 70
     0
  0
VERTEX
  8
LAYER1
 10
1.3472
 20
5.5395
 30
0
 70
     0
  0
VERTEX
  8
LAYER1
 10
1.3611
 20
5.5256
 30
0
 70
     0
  0
VERTEX
  8
LAYER1
 10
1.3611
 20
5.5256
 30
0
 70
     0
  0
VERTEX
  8
LAYER1
 10
1.375
 20
5.5117
 30
0
 70
     0
  0
VERTEX
  8
LAYER1
 10
1.375
 20
5.4978
 30
0
 70
     0
  0
VERTEX
  8
LAYER1
 10
1.375
 20
5.4978
 30
0
 70
     0
  0
SEQEND
  0
LINE
  8
LAYER1
  6
CONTINUOUS
 62
     7
 10
0.8889
 20
5.5395
 30
0
 11
1.3333
 21
5.5395
 31
0
  0
LINE
  8
LAYER1
  6
CONTINUOUS
 62
     7
 10
0.8194
 20
5.5534
 30
0
 11
1.4028
 21
5.5534
 31
0
  0
LINE
  8
LAYER1
  6
CONTINUOUS
 62
     7
 10
1.4028
 20
5.3867
 30
0
 11
1.4028
 21
5.5534
 31
0
  0
LINE
  8
LAYER1
  6
CONTINUOUS
 62
     7
 10
0.8194
 20
5.3867
 30
0
 11
0.8194
 21
5.5534
 31
0
  0
POLYLINE
  8
LAYER1
  6
CONTINUOUS
 62
     7
 66
     1
 70
     0
 40
0.001
 41
0.001
  0
VERTEX
  8
LAYER1
 10
0.8472
 20
5.3867
 30
0
 70
     0
  0
VERTEX
  8
LAYER1
 10
0.8333
 20
5.3867
 30
0
 70
     0
  0
VERTEX
  8
LAYER1
 10
0.8333
 20
5.3867
 30
0
 70
     0
  0
SEQEND
  0
LINE
  8
LAYER1
  6
CONTINUOUS
 62
     7
 10
0.8194
 20
5.3867
 30
0
 11
0.8333
 21
5.3867
 31
0
  0
LINE
  8
LAYER1
  6
CONTINUOUS
 62
     7
 10
0.8472
 20
5.4978
 30
0
 11
0.8472
 21
5.3867
 31
0
  0
POLYLINE
  8
LAYER1
  6
CONTINUOUS
 62
     7
 66
     1
 70
     0
 40
0.001
 41
0.001
  0
VERTEX
  8
LAYER1
 10
1.3889
 20
5.3867
 30
0
 70
     0
  0
VERTEX
  8
LAYER1
 10
1.3889
 20
5.3867
 30
0
 70
     0
  0
VERTEX
  8
LAYER1
 10
1.375
 20
5.3867
 30
0
 70
     0
  0
SEQEND
  0
LINE
  8
LAYER1
  6
CONTINUOUS
 62
     7
 10
1.3889
 20
5.3867
 30
0
 11
1.4028
 21
5.3867
 31
0
  0
ENDBLK
  8
LAYER1
  0
BLOCK
  8
LAYER1
  2
Group26
 70
     0
 10
0
 20
0
 30
0
  0
LINE
  8
LAYER1
  6
CONTINUOUS
 62
     7
 10
1.375
 20
5.4978
 30
0
 11
1.375
 21
5.3867
 31
0
  0
LINE
  8
LAYER1
  6
CONTINUOUS
 62
     7
 10
1.375
 20
5.4284
 30
0
 11
1.4028
 21
5.4562
 31
0
  0
LINE
  8
LAYER1
  6
CONTINUOUS
 62
     7
 10
1.3472
 20
5.5395
 30
0
 11
1.375
 21
5.5534
 31
0
  0
LINE
  8
LAYER1
  6
CONTINUOUS
 62
     7
 10
1.2222
 20
5.5395
 30
0
 11
1.2361
 21
5.5534
 31
0
  0
LINE
  8
LAYER1
  6
CONTINUOUS
 62
     7
 10
1.0833
 20
5.5395
 30
0
 11
1.1111
 21
5.5534
 31
0
  0
LINE
  8
LAYER1
  6
CONTINUOUS
 62
     7
 10
0.8194
 20
5.4006
 30
0
 11
0.8472
 21
5.4284
 31
0
  0
LINE
  8
LAYER1
  6
CONTINUOUS
 62
     7
 10
0.9583
 20
5.5395
 30
0
 11
0.9722
 21
5.5534
 31
0
  0
LINE
  8
LAYER1
  6
CONTINUOUS
 62
     7
 10
0.8194
 20
5.5395
 30
0
 11
0.8333
 21
5.5534
 31
0
  0
LINE
  8
LAYER1
  6
CONTINUOUS
 62
     7
 10
1.375
 20
5.3867
 30
0
 11
1.4028
 21
5.4145
 31
0
  0
LINE
  8
LAYER1
  6
CONTINUOUS
 62
     7
 10
1.375
 20
5.5117
 30
0
 11
1.4028
 21
5.5395
 31
0
  0
LINE
  8
LAYER1
  6
CONTINUOUS
 62
     7
 10
1.2639
 20
5.5395
 30
0
 11
1.2778
 21
5.5534
 31
0
  0
LINE
  8
LAYER1
  6
CONTINUOUS
 62
     7
 10
1.1389
 20
5.5395
 30
0
 11
1.1528
 21
5.5534
 31
0
  0
LINE
  8
LAYER1
  6
CONTINUOUS
 62
     7
 10
1
 20
5.5395
 30
0
 11
1.0139
 21
5.5534
 31
0
  0
ENDBLK
  8
LAYER1
  0
BLOCK
  8
LAYER1
  2
Group27
 70
     0
 10
0
 20
0
 30
0
  0
INSERT
  8
LAYER1
  2
Group25
 10
0
 20
0
 30
0
  0
INSERT
  8
LAYER1
  2
Group26
 10
0
 20
0
 30
0
  0
ENDBLK
  8
LAYER1
  0
BLOCK
  8
LAYER1
  2
Group28
 70
     0
 10
0
 20
0
 30
0
  0
INSERT
  8
LAYER1
  2
Group24
 10
0
 20
0
 30
0
  0
INSERT
  8
LAYER1
  2
Group27
 10
0
 20
0
 30
0
  0
ENDBLK
  8
LAYER1
  0
BLOCK
  8
LAYER1
  2
Group29
 70
     0
 10
0
 20
0
 30
0
  0
LINE
  8
LAYER1
  6
CONTINUOUS
 62
     7
 10
0.8194
 20
5.4978
 30
0
 11
0.8889
 21
5.5534
 31
0
  0
POLYLINE
  8
LAYER1
  6
CONTINUOUS
 62
     7
 66
     1
 70
     0
 40
0.001
 41
0.001
  0
VERTEX
  8
LAYER1
 10
1.1389
 20
3.8312
 30
0
 70
     0
  0
VERTEX
  8
LAYER1
 10
1.1528
 20
3.8312
 30
0
 70
     0
  0
VERTEX
  8
LAYER1
 10
1.1667
 20
3.8173
 30
0
 70
     0
  0
VERTEX
  8
LAYER1
 10
1.1667
 20
3.8173
 30
0
 70
     0
  0
VERTEX
  8
LAYER1
 10
1.1806
 20
3.8034
 30
0
 70
     0
  0
VERTEX
  8
LAYER1
 10
1.1806
 20
3.7895
 30
0
 70
     0
  0
VERTEX
  8
LAYER1
 10
1.1806
 20
3.7895
 30
0
 70
     0
  0
VERTEX
  8
LAYER1
 10
1.1806
 20
3.7895
 30
0
 70
     0
  0
SEQEND
  0
POLYLINE
  8
LAYER1
  6
CONTINUOUS
 62
     7
 66
     1
 70
     0
 40
0.001
 41
0.001
  0
VERTEX
  8
LAYER1
 10
1.1806
 20
3.3451
 30
0
 70
     0
  0
VERTEX
  8
LAYER1
 10
1.1806
 20
3.3312
 30
0
 70
     0
  0
VERTEX
  8
LAYER1
 10
1.1806
 20
3.3312
 30
0
 70
     0
  0
VERTEX
  8
LAYER1
 10
1.1667
 20
3.3173
 30
0
 70
     0
  0
VERTEX
  8
LAYER1
 10
1.1528
 20
3.3034
 30
0
 70
     0
  0
VERTEX
  8
LAYER1
 10
1.1528
 20
3.3034
 30
0
 70
     0
  0
VERTEX
  8
LAYER1
 10
1.1389
 20
3.3034
 30
0
 70
     0
  0
SEQEND
  0
LINE
  8
LAYER1
  6
CONTINUOUS
 62
     7
 10
1.1806
 20
3.7895
 30
0
 11
1.1806
 21
3.3451
 31
0
  0
LINE
  8
LAYER1
  6
CONTINUOUS
 62
     7
 10
1.1944
 20
3.8589
 30
0
 11
1.1944
 21
3.2756
 31
0
  0
LINE
  8
LAYER1
  6
CONTINUOUS
 62
     7
 10
1.0278
 20
3.2756
 30
0
 11
1.1944
 21
3.2756
 31
0
  0
LINE
  8
LAYER1
  6
CONTINUOUS
 62
     7
 10
1.0278
 20
3.8589
 30
0
 11
1.1944
 21
3.8589
 31
0
  0
POLYLINE
  8
LAYER1
  6
CONTINUOUS
 62
     7
 66
     1
 70
     0
 40
0.001
 41
0.001
  0
VERTEX
  8
LAYER1
 10
1.0278
 20
3.8312
 30
0
 70
     0
  0
VERTEX
  8
LAYER1
 10
1.0278
 20
3.8451
 30
0
 70
     0
  0
VERTEX
  8
LAYER1
 10
1.0278
 20
3.8451
 30
0
 70
     0
  0
VERTEX
  8
LAYER1
 10
1.0278
 20
3.8451
 30
0
 70
     0
  0
SEQEND
  0
LINE
  8
LAYER1
  6
CONTINUOUS
 62
     7
 10
1.0278
 20
3.8589
 30
0
 11
1.0278
 21
3.8451
 31
0
  0
LINE
  8
LAYER1
  6
CONTINUOUS
 62
     7
 10
1.1389
 20
3.8312
 30
0
 11
1.0278
 21
3.8312
 31
0
  0
POLYLINE
  8
LAYER1
  6
CONTINUOUS
 62
     7
 66
     1
 70
     0
 40
0.001
 41
0.001
  0
VERTEX
  8
LAYER1
 10
1.0278
 20
3.2895
 30
0
 70
     0
  0
VERTEX
  8
LAYER1
 10
1.0278
 20
3.3034
 30
0
 70
     0
  0
VERTEX
  8
LAYER1
 10
1.0278
 20
3.3034
 30
0
 70
     0
  0
SEQEND
  0
LINE
  8
LAYER1
  6
CONTINUOUS
 62
     7
 10
1.0278
 20
3.2895
 30
0
 11
1.0278
 21
3.2756
 31
0
  0
ENDBLK
  8
LAYER1
  0
BLOCK
  8
LAYER1
  2
Group30
 70
     0
 10
0
 20
0
 30
0
  0
LINE
  8
LAYER1
  6
CONTINUOUS
 62
     7
 10
1.1389
 20
3.3034
 30
0
 11
1.0278
 21
3.3034
 31
0
  0
LINE
  8
LAYER1
  6
CONTINUOUS
 62
     7
 10
1.0694
 20
3.3034
 30
0
 11
1.0972
 21
3.2756
 31
0
  0
LINE
  8
LAYER1
  6
CONTINUOUS
 62
     7
 10
1.1806
 20
3.3312
 30
0
 11
1.1944
 21
3.3034
 31
0
  0
LINE
  8
LAYER1
  6
CONTINUOUS
 62
     7
 10
1.1806
 20
3.4562
 30
0
 11
1.1944
 21
3.4423
 31
0
  0
LINE
  8
LAYER1
  6
CONTINUOUS
 62
     7
 10
1.1806
 20
3.5951
 30
0
 11
1.1944
 21
3.5812
 31
0
  0
LINE
  8
LAYER1
  6
CONTINUOUS
 62
     7
 10
1.0417
 20
3.8589
 30
0
 11
1.0694
 21
3.8312
 31
0
  0
LINE
  8
LAYER1
  6
CONTINUOUS
 62
     7
 10
1.1806
 20
3.7201
 30
0
 11
1.1944
 21
3.7062
 31
0
  0
LINE
  8
LAYER1
  6
CONTINUOUS
 62
     7
 10
1.1806
 20
3.8589
 30
0
 11
1.1944
 21
3.8451
 31
0
  0
LINE
  8
LAYER1
  6
CONTINUOUS
 62
     7
 10
1.0278
 20
3.3034
 30
0
 11
1.0556
 21
3.2756
 31
0
  0
LINE
  8
LAYER1
  6
CONTINUOUS
 62
     7
 10
1.1528
 20
3.3034
 30
0
 11
1.1806
 21
3.2756
 31
0
  0
LINE
  8
LAYER1
  6
CONTINUOUS
 62
     7
 10
1.1806
 20
3.4145
 30
0
 11
1.1944
 21
3.4006
 31
0
  0
LINE
  8
LAYER1
  6
CONTINUOUS
 62
     7
 10
1.1806
 20
3.5534
 30
0
 11
1.1944
 21
3.5256
 31
0
  0
LINE
  8
LAYER1
  6
CONTINUOUS
 62
     7
 10
1.1806
 20
3.6784
 30
0
 11
1.1944
 21
3.6645
 31
0
  0
ENDBLK
  8
LAYER1
  0
BLOCK
  8
LAYER1
  2
Group31
 70
     0
 10
0
 20
0
 30
0
  0
INSERT
  8
LAYER1
  2
Group29
 10
0
 20
0
 30
0
  0
INSERT
  8
LAYER1
  2
Group30
 10
0
 20
0
 30
0
  0
ENDBLK
  8
LAYER1
  0
BLOCK
  8
LAYER1
  2
Group32
 70
     0
 10
0
 20
0
 30
0
  0
LINE
  8
LAYER1
  6
CONTINUOUS
 62
     7
 10
1.1389
 20
3.8589
 30
0
 11
1.1944
 21
3.8034
 31
0
  0
POLYLINE
  8
LAYER1
  6
CONTINUOUS
 62
     7
 66
     1
 70
     0
 40
0.001
 41
0.001
  0
VERTEX
  8
LAYER1
 10
0.8056
 20
3.8173
 30
0
 70
     0
  0
VERTEX
  8
LAYER1
 10
0.8056
 20
3.8173
 30
0
 70
     0
  0
VERTEX
  8
LAYER1
 10
0.8194
 20
3.8451
 30
0
 70
     0
  0
VERTEX
  8
LAYER1
 10
0.8194
 20
3.8451
 30
0
 70
     0
  0
VERTEX
  8
LAYER1
 10
0.8194
 20
3.8451
 30
0
 70
     0
  0
VERTEX
  8
LAYER1
 10
0.8472
 20
3.8589
 30
0
 70
     0
  0
VERTEX
  8
LAYER1
 10
0.8472
 20
3.8589
 30
0
 70
     0
  0
SEQEND
  0
POLYLINE
  8
LAYER1
  6
CONTINUOUS
 62
     7
 66
     1
 70
     0
 40
0.001
 41
0.001
  0
VERTEX
  8
LAYER1
 10
1.375
 20
3.8589
 30
0
 70
     0
  0
VERTEX
  8
LAYER1
 10
1.3889
 20
3.8589
 30
0
 70
     0
  0
VERTEX
  8
LAYER1
 10
1.4028
 20
3.8451
 30
0
 70
     0
  0
VERTEX
  8
LAYER1
 10
1.4028
 20
3.8451
 30
0
 70
     0
  0
VERTEX
  8
LAYER1
 10
1.4167
 20
3.8312
 30
0
 70
     0
  0
VERTEX
  8
LAYER1
 10
1.4167
 20
3.8173
 30
0
 70
     0
  0
VERTEX
  8
LAYER1
 10
1.4167
 20
3.8173
 30
0
 70
     0
  0
SEQEND
  0
LINE
  8
LAYER1
  6
CONTINUOUS
 62
     7
 10
0.8472
 20
3.8589
 30
0
 11
1.375
 21
3.8589
 31
0
  0
POLYLINE
  8
LAYER1
  6
CONTINUOUS
 62
     7
 66
     1
 70
     0
 40
0.001
 41
0.001
  0
VERTEX
  8
LAYER1
 10
0.7778
 20
3.8867
 30
0
 70
     0
  0
VERTEX
  8
LAYER1
 10
1.4444
 20
3.8867
 30
0
 70
     0
  0
VERTEX
  8
LAYER1
 10
1.4444
 20
3.6923
 30
0
 70
     0
  0
SEQEND
  0
LINE
  8
LAYER1
  6
CONTINUOUS
 62
     7
 10
0.7778
 20
3.8867
 30
0
 11
0.7778
 21
3.6923
 31
0
  0
POLYLINE
  8
LAYER1
  6
CONTINUOUS
 62
     7
 66
     1
 70
     0
 40
0.001
 41
0.001
  0
VERTEX
  8
LAYER1
 10
0.8056
 20
3.7062
 30
0
 70
     0
  0
VERTEX
  8
LAYER1
 10
0.8056
 20
3.6923
 30
0
 70
     0
  0
VERTEX
  8
LAYER1
 10
0.8056
 20
3.6923
 30
0
 70
     0
  0
VERTEX
  8
LAYER1
 10
0.7917
 20
3.6923
 30
0
 70
     0
  0
VERTEX
  8
LAYER1
 10
0.7917
 20
3.6923
 30
0
 70
     0
  0
SEQEND
  0
LINE
  8
LAYER1
  6
CONTINUOUS
 62
     7
 10
0.7778
 20
3.6923
 30
0
 11
0.7917
 21
3.6923
 31
0
  0
LINE
  8
LAYER1
  6
CONTINUOUS
 62
     7
 10
0.8056
 20
3.8173
 30
0
 11
0.8056
 21
3.7062
 31
0
  0
POLYLINE
  8
LAYER1
  6
CONTINUOUS
 62
     7
 66
     1
 70
     0
 40
0.001
 41
0.001
  0
VERTEX
  8
LAYER1
 10
1.4306
 20
3.6923
 30
0
 70
     0
  0
VERTEX
  8
LAYER1
 10
1.4306
 20
3.6923
 30
0
 70
     0
  0
VERTEX
  8
LAYER1
 10
1.4306
 20
3.6923
 30
0
 70
     0
  0
VERTEX
  8
LAYER1
 10
1.4167
 20
3.6923
 30
0
 70
     0
  0
VERTEX
  8
LAYER1
 10
1.4167
 20
3.7062
 30
0
 70
     0
  0
SEQEND
  0
LINE
  8
LAYER1
  6
CONTINUOUS
 62
     7
 10
1.4306
 20
3.6923
 30
0
 11
1.4444
 21
3.6923
 31
0
  0
ENDBLK
  8
LAYER1
  0
BLOCK
  8
LAYER1
  2
Group33
 70
     0
 10
0
 20
0
 30
0
  0
LINE
  8
LAYER1
  6
CONTINUOUS
 62
     7
 10
1.4167
 20
3.8173
 30
0
 11
1.4167
 21
3.7062
 31
0
  0
LINE
  8
LAYER1
  6
CONTINUOUS
 62
     7
 10
1.4167
 20
3.8034
 30
0
 11
1.4444
 21
3.8312
 31
0
  0
LINE
  8
LAYER1
  6
CONTINUOUS
 62
     7
 10
1.3333
 20
3.8589
 30
0
 11
1.3611
 21
3.8867
 31
0
  0
LINE
  8
LAYER1
  6
CONTINUOUS
 62
     7
 10
1.2083
 20
3.8589
 30
0
 11
1.2222
 21
3.8867
 31
0
  0
LINE
  8
LAYER1
  6
CONTINUOUS
 62
     7
 10
1.0694
 20
3.8589
 30
0
 11
1.0972
 21
3.8867
 31
0
  0
LINE
  8
LAYER1
  6
CONTINUOUS
 62
     7
 10
0.7778
 20
3.6923
 30
0
 11
0.8056
 21
3.7201
 31
0
  0
LINE
  8
LAYER1
  6
CONTINUOUS
 62
     7
 10
0.9444
 20
3.8589
 30
0
 11
0.9583
 21
3.8867
 31
0
  0
LINE
  8
LAYER1
  6
CONTINUOUS
 62
     7
 10
0.7778
 20
3.8312
 30
0
 11
0.8333
 21
3.8867
 31
0
  0
LINE
  8
LAYER1
  6
CONTINUOUS
 62
     7
 10
1.4167
 20
3.7617
 30
0
 11
1.4444
 21
3.7895
 31
0
  0
LINE
  8
LAYER1
  6
CONTINUOUS
 62
     7
 10
1.3889
 20
3.8589
 30
0
 11
1.4028
 21
3.8867
 31
0
  0
LINE
  8
LAYER1
  6
CONTINUOUS
 62
     7
 10
1.25
 20
3.8589
 30
0
 11
1.2778
 21
3.8867
 31
0
  0
LINE
  8
LAYER1
  6
CONTINUOUS
 62
     7
 10
1.125
 20
3.8589
 30
0
 11
1.1389
 21
3.8867
 31
0
  0
LINE
  8
LAYER1
  6
CONTINUOUS
 62
     7
 10
0.9861
 20
3.8589
 30
0
 11
1
 21
3.8867
 31
0
  0
LINE
  8
LAYER1
  6
CONTINUOUS
 62
     7
 10
0.7778
 20
3.7895
 30
0
 11
0.8056
 21
3.8173
 31
0
  0
ENDBLK
  8
LAYER1
  0
BLOCK
  8
LAYER1
  2
Group34
 70
     0
 10
0
 20
0
 30
0
  0
INSERT
  8
LAYER1
  2
Group32
 10
0
 20
0
 30
0
  0
INSERT
  8
LAYER1
  2
Group33
 10
0
 20
0
 30
0
  0
ENDBLK
  8
LAYER1
  0
BLOCK
  8
LAYER1
  2
Group35
 70
     0
 10
0
 20
0
 30
0
  0
INSERT
  8
LAYER1
  2
Group31
 10
0
 20
0
 30
0
  0
INSERT
  8
LAYER1
  2
Group34
 10
0
 20
0
 30
0
  0
ENDBLK
  8
LAYER1
  0
BLOCK
  8
LAYER1
  2
Group36
 70
     0
 10
0
 20
0
 30
0
  0
LINE
  8
LAYER1
  6
CONTINUOUS
 62
     7
 10
0.8472
 20
3.8589
 30
0
 11
0.875
 21
3.8867
 31
0
  0
POLYLINE
  8
LAYER1
  6
CONTINUOUS
 62
     7
 66
     1
 70
     0
 40
0.001
 41
0.001
  0
VERTEX
  8
LAYER1
 10
1.1389
 20
2.1367
 30
0
 70
     0
  0
VERTEX
  8
LAYER1
 10
1.1528
 20
2.1367
 30
0
 70
     0
  0
VERTEX
  8
LAYER1
 10
1.1667
 20
2.1228
 30
0
 70
     0
  0
VERTEX
  8
LAYER1
 10
1.1667
 20
2.1228
 30
0
 70
     0
  0
VERTEX
  8
LAYER1
 10
1.1806
 20
2.1089
 30
0
 70
     0
  0
VERTEX
  8
LAYER1
 10
1.1806
 20
2.0951
 30
0
 70
     0
  0
VERTEX
  8
LAYER1
 10
1.1806
 20
2.0812
 30
0
 70
     0
  0
VERTEX
  8
LAYER1
 10
1.1806
 20
2.0812
 30
0
 70
     0
  0
SEQEND
  0
POLYLINE
  8
LAYER1
  6
CONTINUOUS
 62
     7
 66
     1
 70
     0
 40
0.001
 41
0.001
  0
VERTEX
  8
LAYER1
 10
1.1806
 20
1.5673
 30
0
 70
     0
  0
VERTEX
  8
LAYER1
 10
1.1806
 20
1.5534
 30
0
 70
     0
  0
VERTEX
  8
LAYER1
 10
1.1806
 20
1.5534
 30
0
 70
     0
  0
VERTEX
  8
LAYER1
 10
1.1667
 20
1.5395
 30
0
 70
     0
  0
VERTEX
  8
LAYER1
 10
1.1528
 20
1.5256
 30
0
 70
     0
  0
VERTEX
  8
LAYER1
 10
1.1528
 20
1.5256
 30
0
 70
     0
  0
VERTEX
  8
LAYER1
 10
1.1389
 20
1.5256
 30
0
 70
     0
  0
SEQEND
  0
LINE
  8
LAYER1
  6
CONTINUOUS
 62
     7
 10
1.1806
 20
2.0812
 30
0
 11
1.1806
 21
1.5673
 31
0
  0
POLYLINE
  8
LAYER1
  6
CONTINUOUS
 62
     7
 66
     1
 70
     0
 40
0.001
 41
0.001
  0
VERTEX
  8
LAYER1
 10
1.2083
 20
2.1645
 30
0
 70
     0
  0
VERTEX
  8
LAYER1
 10
1.2083
 20
1.4978
 30
0
 70
     0
  0
VERTEX
  8
LAYER1
 10
1.0139
 20
1.4978
 30
0
 70
     0
  0
SEQEND
  0
LINE
  8
LAYER1
  6
CONTINUOUS
 62
     7
 10
1.2083
 20
2.1645
 30
0
 11
1.0139
 21
2.1645
 31
0
  0
POLYLINE
  8
LAYER1
  6
CONTINUOUS
 62
     7
 66
     1
 70
     0
 40
0.001
 41
0.001
  0
VERTEX
  8
LAYER1
 10
1.0278
 20
2.1367
 30
0
 70
     0
  0
VERTEX
  8
LAYER1
 10
1.0139
 20
2.1367
 30
0
 70
     0
  0
VERTEX
  8
LAYER1
 10
1.0139
 20
2.1506
 30
0
 70
     0
  0
VERTEX
  8
LAYER1
 10
1.0139
 20
2.1506
 30
0
 70
     0
  0
SEQEND
  0
LINE
  8
LAYER1
  6
CONTINUOUS
 62
     7
 10
1.0139
 20
2.1645
 30
0
 11
1.0139
 21
2.1506
 31
0
  0
LINE
  8
LAYER1
  6
CONTINUOUS
 62
     7
 10
1.1389
 20
2.1367
 30
0
 11
1.0278
 21
2.1367
 31
0
  0
POLYLINE
  8
LAYER1
  6
CONTINUOUS
 62
     7
 66
     1
 70
     0
 40
0.001
 41
0.001
  0
VERTEX
  8
LAYER1
 10
1.0139
 20
1.5117
 30
0
 70
     0
  0
VERTEX
  8
LAYER1
 10
1.0139
 20
1.5117
 30
0
 70
     0
  0
VERTEX
  8
LAYER1
 10
1.0278
 20
1.5117
 30
0
 70
     0
  0
SEQEND
  0
LINE
  8
LAYER1
  6
CONTINUOUS
 62
     7
 10
1.0139
 20
1.5117
 30
0
 11
1.0139
 21
1.4978
 31
0
  0
ENDBLK
  8
LAYER1
  0
BLOCK
  8
LAYER1
  2
Group37
 70
     0
 10
0
 20
0
 30
0
  0
LINE
  8
LAYER1
  6
CONTINUOUS
 62
     7
 10
1.1389
 20
1.5256
 30
0
 11
1.0278
 21
1.5117
 31
0
  0
LINE
  8
LAYER1
  6
CONTINUOUS
 62
     7
 10
1.0139
 20
1.4978
 30
0
 11
1.0278
 21
1.4978
 31
0
  0
LINE
  8
LAYER1
  6
CONTINUOUS
 62
     7
 10
1.125
 20
1.5256
 30
0
 11
1.1528
 21
1.4978
 31
0
  0
LINE
  8
LAYER1
  6
CONTINUOUS
 62
     7
 10
1.1806
 20
1.5951
 30
0
 11
1.2083
 21
1.5812
 31
0
  0
LINE
  8
LAYER1
  6
CONTINUOUS
 62
     7
 10
1.1806
 20
1.7339
 30
0
 11
1.2083
 21
1.7062
 31
0
  0
LINE
  8
LAYER1
  6
CONTINUOUS
 62
     7
 10
1.1806
 20
1.8589
 30
0
 11
1.2083
 21
1.8451
 31
0
  0
LINE
  8
LAYER1
  6
CONTINUOUS
 62
     7
 10
1.0139
 20
2.1645
 30
0
 11
1.0417
 21
2.1367
 31
0
  0
LINE
  8
LAYER1
  6
CONTINUOUS
 62
     7
 10
1.1806
 20
1.9978
 30
0
 11
1.2083
 21
1.9701
 31
0
  0
LINE
  8
LAYER1
  6
CONTINUOUS
 62
     7
 10
1.1528
 20
2.1645
 30
0
 11
1.2083
 21
2.1089
 31
0
  0
LINE
  8
LAYER1
  6
CONTINUOUS
 62
     7
 10
1.0833
 20
1.5256
 30
0
 11
1.1111
 21
1.4978
 31
0
  0
LINE
  8
LAYER1
  6
CONTINUOUS
 62
     7
 10
1.1806
 20
1.5534
 30
0
 11
1.2083
 21
1.5395
 31
0
  0
LINE
  8
LAYER1
  6
CONTINUOUS
 62
     7
 10
1.1806
 20
1.6923
 30
0
 11
1.2083
 21
1.6645
 31
0
  0
LINE
  8
LAYER1
  6
CONTINUOUS
 62
     7
 10
1.1806
 20
1.8173
 30
0
 11
1.2083
 21
1.8034
 31
0
  0
LINE
  8
LAYER1
  6
CONTINUOUS
 62
     7
 10
1.1806
 20
1.9562
 30
0
 11
1.2083
 21
1.9284
 31
0
  0
LINE
  8
LAYER1
  6
CONTINUOUS
 62
     7
 10
1.1111
 20
2.1645
 30
0
 11
1.1389
 21
2.1367
 31
0
  0
ENDBLK
  8
LAYER1
  0
BLOCK
  8
LAYER1
  2
Group38
 70
     0
 10
0
 20
0
 30
0
  0
INSERT
  8
LAYER1
  2
Group36
 10
0
 20
0
 30
0
  0
INSERT
  8
LAYER1
  2
Group37
 10
0
 20
0
 30
0
  0
ENDBLK
  8
LAYER1
  0
BLOCK
  8
LAYER1
  2
Group39
 70
     0
 10
0
 20
0
 30
0
  0
LINE
  8
LAYER1
  6
CONTINUOUS
 62
     7
 10
1.1806
 20
2.0812
 30
0
 11
1.2083
 21
2.0673
 31
0
  0
POLYLINE
  8
LAYER1
  6
CONTINUOUS
 62
     7
 66
     1
 70
     0
 40
0.001
 41
0.001
  0
VERTEX
  8
LAYER1
 10
0.7639
 20
2.1228
 30
0
 70
     0
  0
VERTEX
  8
LAYER1
 10
0.7639
 20
2.1228
 30
0
 70
     0
  0
VERTEX
  8
LAYER1
 10
0.7778
 20
2.1367
 30
0
 70
     0
  0
VERTEX
  8
LAYER1
 10
0.7778
 20
2.1506
 30
0
 70
     0
  0
VERTEX
  8
LAYER1
 10
0.7778
 20
2.1506
 30
0
 70
     0
  0
VERTEX
  8
LAYER1
 10
0.8056
 20
2.1645
 30
0
 70
     0
  0
VERTEX
  8
LAYER1
 10
0.8056
 20
2.1645
 30
0
 70
     0
  0
SEQEND
  0
POLYLINE
  8
LAYER1
  6
CONTINUOUS
 62
     7
 66
     1
 70
     0
 40
0.001
 41
0.001
  0
VERTEX
  8
LAYER1
 10
1.4167
 20
2.1645
 30
0
 70
     0
  0
VERTEX
  8
LAYER1
 10
1.4306
 20
2.1645
 30
0
 70
     0
  0
VERTEX
  8
LAYER1
 10
1.4444
 20
2.1506
 30
0
 70
     0
  0
VERTEX
  8
LAYER1
 10
1.4444
 20
2.1506
 30
0
 70
     0
  0
VERTEX
  8
LAYER1
 10
1.4444
 20
2.1367
 30
0
 70
     0
  0
VERTEX
  8
LAYER1
 10
1.4444
 20
2.1228
 30
0
 70
     0
  0
VERTEX
  8
LAYER1
 10
1.4444
 20
2.1228
 30
0
 70
     0
  0
SEQEND
  0
LINE
  8
LAYER1
  6
CONTINUOUS
 62
     7
 10
0.8056
 20
2.1645
 30
0
 11
1.4167
 21
2.1645
 31
0
  0
LINE
  8
LAYER1
  6
CONTINUOUS
 62
     7
 10
0.7361
 20
2.1784
 30
0
 11
1.4861
 21
2.1784
 31
0
  0
LINE
  8
LAYER1
  6
CONTINUOUS
 62
     7
 10
0.7361
 20
2.1784
 30
0
 11
0.7361
 21
1.9839
 31
0
  0
POLYLINE
  8
LAYER1
  6
CONTINUOUS
 62
     7
 66
     1
 70
     0
 40
0.001
 41
0.001
  0
VERTEX
  8
LAYER1
 10
0.7639
 20
1.9839
 30
0
 70
     0
  0
VERTEX
  8
LAYER1
 10
0.7639
 20
1.9839
 30
0
 70
     0
  0
VERTEX
  8
LAYER1
 10
0.75
 20
1.9839
 30
0
 70
     0
  0
SEQEND
  0
LINE
  8
LAYER1
  6
CONTINUOUS
 62
     7
 10
0.7361
 20
1.9839
 30
0
 11
0.75
 21
1.9839
 31
0
  0
LINE
  8
LAYER1
  6
CONTINUOUS
 62
     7
 10
0.7639
 20
2.1228
 30
0
 11
0.7639
 21
1.9839
 31
0
  0
POLYLINE
  8
LAYER1
  6
CONTINUOUS
 62
     7
 66
     1
 70
     0
 40
0.001
 41
0.001
  0
VERTEX
  8
LAYER1
 10
1.4722
 20
1.9839
 30
0
 70
     0
  0
VERTEX
  8
LAYER1
 10
1.4583
 20
1.9839
 30
0
 70
     0
  0
VERTEX
  8
LAYER1
 10
1.4583
 20
1.9839
 30
0
 70
     0
  0
SEQEND
  0
LINE
  8
LAYER1
  6
CONTINUOUS
 62
     7
 10
1.4444
 20
2.1228
 30
0
 11
1.4583
 21
1.9839
 31
0
  0
LINE
  8
LAYER1
  6
CONTINUOUS
 62
     7
 10
1.4722
 20
1.9839
 30
0
 11
1.4861
 21
1.9839
 31
0
  0
ENDBLK
  8
LAYER1
  0
BLOCK
  8
LAYER1
  2
Group40
 70
     0
 10
0
 20
0
 30
0
  0
LINE
  8
LAYER1
  6
CONTINUOUS
 62
     7
 10
1.4861
 20
2.1784
 30
0
 11
1.4861
 21
1.9839
 31
0
  0
LINE
  8
LAYER1
  6
CONTINUOUS
 62
     7
 10
1.4583
 20
2.0256
 30
0
 11
1.4861
 21
2.0673
 31
0
  0
LINE
  8
LAYER1
  6
CONTINUOUS
 62
     7
 10
1.4444
 20
2.1506
 30
0
 11
1.4722
 21
2.1784
 31
0
  0
LINE
  8
LAYER1
  6
CONTINUOUS
 62
     7
 10
1.3194
 20
2.1645
 30
0
 11
1.3333
 21
2.1784
 31
0
  0
LINE
  8
LAYER1
  6
CONTINUOUS
 62
     7
 10
1.1806
 20
2.1645
 30
0
 11
1.2083
 21
2.1784
 31
0
  0
LINE
  8
LAYER1
  6
CONTINUOUS
 62
     7
 10
1.0556
 20
2.1645
 30
0
 11
1.0694
 21
2.1784
 31
0
  0
LINE
  8
LAYER1
  6
CONTINUOUS
 62
     7
 10
0.7361
 20
1.9839
 30
0
 11
0.7639
 21
1.9978
 31
0
  0
LINE
  8
LAYER1
  6
CONTINUOUS
 62
     7
 10
0.9167
 20
2.1645
 30
0
 11
0.9444
 21
2.1784
 31
0
  0
LINE
  8
LAYER1
  6
CONTINUOUS
 62
     7
 10
0.7361
 20
2.1089
 30
0
 11
0.8056
 21
2.1784
 31
0
  0
LINE
  8
LAYER1
  6
CONTINUOUS
 62
     7
 10
1.4583
 20
1.9839
 30
0
 11
1.4861
 21
2.0117
 31
0
  0
LINE
  8
LAYER1
  6
CONTINUOUS
 62
     7
 10
1.4583
 20
2.1228
 30
0
 11
1.4861
 21
2.1506
 31
0
  0
LINE
  8
LAYER1
  6
CONTINUOUS
 62
     7
 10
1.3611
 20
2.1645
 30
0
 11
1.3889
 21
2.1784
 31
0
  0
LINE
  8
LAYER1
  6
CONTINUOUS
 62
     7
 10
1.2361
 20
2.1645
 30
0
 11
1.25
 21
2.1784
 31
0
  0
LINE
  8
LAYER1
  6
CONTINUOUS
 62
     7
 10
1.0972
 20
2.1645
 30
0
 11
1.125
 21
2.1784
 31
0
  0
LINE
  8
LAYER1
  6
CONTINUOUS
 62
     7
 10
0.9583
 20
2.1645
 30
0
 11
0.9861
 21
2.1784
 31
0
  0
LINE
  8
LAYER1
  6
CONTINUOUS
 62
     7
 10
0.7361
 20
2.0673
 30
0
 11
0.7639
 21
2.0951
 31
0
  0
ENDBLK
  8
LAYER1
  0
BLOCK
  8
LAYER1
  2
Group41
 70
     0
 10
0
 20
0
 30
0
  0
INSERT
  8
LAYER1
  2
Group39
 10
0
 20
0
 30
0
  0
INSERT
  8
LAYER1
  2
Group40
 10
0
 20
0
 30
0
  0
ENDBLK
  8
LAYER1
  0
BLOCK
  8
LAYER1
  2
Group42
 70
     0
 10
0
 20
0
 30
0
  0
INSERT
  8
LAYER1
  2
Group38
 10
0
 20
0
 30
0
  0
INSERT
  8
LAYER1
  2
Group41
 10
0
 20
0
 30
0
  0
ENDBLK
  8
LAYER1
  0
BLOCK
  8
LAYER1
  2
Group43
 70
     0
 10
0
 20
0
 30
0
  0
LINE
  8
LAYER1
  6
CONTINUOUS
 62
     7
 10
0.8333
 20
2.1645
 30
0
 11
0.8472
 21
2.1784
 31
0
  0
POLYLINE
  8
LAYER1
  6
CONTINUOUS
 62
     7
 66
     1
 70
     0
 40
0.001
 41
0.001
  0
VERTEX
  8
LAYER1
 10
4.2917
 20
6.9701
 30
0
 70
     0
  0
VERTEX
  8
LAYER1
 10
4.2917
 20
6.9701
 30
0
 70
     0
  0
VERTEX
  8
LAYER1
 10
4.3056
 20
6.9978
 30
0
 70
     0
  0
VERTEX
  8
LAYER1
 10
4.3194
 20
7.0117
 30
0
 70
     0
  0
VERTEX
  8
LAYER1
 10
4.3194
 20
7.0117
 30
0
 70
     0
  0
VERTEX
  8
LAYER1
 10
4.3472
 20
7.0256
 30
0
 70
     0
  0
VERTEX
  8
LAYER1
 10
4.3611
 20
7.0256
 30
0
 70
     0
  0
SEQEND
  0
POLYLINE
  8
LAYER1
  6
CONTINUOUS
 62
     7
 66
     1
 70
     0
 40
0.001
 41
0.001
  0
VERTEX
  8
LAYER1
 10
5.375
 20
7.0256
 30
0
 70
     0
  0
VERTEX
  8
LAYER1
 10
5.3889
 20
7.0256
 30
0
 70
     0
  0
VERTEX
  8
LAYER1
 10
5.4167
 20
7.0117
 30
0
 70
     0
  0
VERTEX
  8
LAYER1
 10
5.4306
 20
7.0117
 30
0
 70
     0
  0
VERTEX
  8
LAYER1
 10
5.4444
 20
6.9978
 30
0
 70
     0
  0
VERTEX
  8
LAYER1
 10
5.4444
 20
6.9701
 30
0
 70
     0
  0
VERTEX
  8
LAYER1
 10
5.4444
 20
6.9701
 30
0
 70
     0
  0
SEQEND
  0
LINE
  8
LAYER1
  6
CONTINUOUS
 62
     7
 10
4.3611
 20
7.0256
 30
0
 11
5.375
 21
7.0256
 31
0
  0
LINE
  8
LAYER1
  6
CONTINUOUS
 62
     7
 10
4.25
 20
7.0534
 30
0
 11
5.5
 21
7.0534
 31
0
  0
POLYLINE
  8
LAYER1
  6
CONTINUOUS
 62
     7
 66
     1
 70
     0
 40
0.001
 41
0.001
  0
VERTEX
  8
LAYER1
 10
4.2917
 20
6.7895
 30
0
 70
     0
  0
VERTEX
  8
LAYER1
 10
4.2778
 20
6.7756
 30
0
 70
     0
  0
VERTEX
  8
LAYER1
 10
4.2639
 20
6.7756
 30
0
 70
     0
  0
SEQEND
  0
LINE
  8
LAYER1
  6
CONTINUOUS
 62
     7
 10
4.2917
 20
6.9701
 30
0
 11
4.2917
 21
6.7895
 31
0
  0
POLYLINE
  8
LAYER1
  6
CONTINUOUS
 62
     7
 66
     1
 70
     0
 40
0.001
 41
0.001
  0
VERTEX
  8
LAYER1
 10
5.4722
 20
6.7756
 30
0
 70
     0
  0
VERTEX
  8
LAYER1
 10
5.4583
 20
6.7756
 30
0
 70
     0
  0
VERTEX
  8
LAYER1
 10
5.4583
 20
6.7895
 30
0
 70
     0
  0
SEQEND
  0
LINE
  8
LAYER1
  6
CONTINUOUS
 62
     7
 10
5.4444
 20
6.9701
 30
0
 11
5.4583
 21
6.7895
 31
0
  0
LINE
  8
LAYER1
  6
CONTINUOUS
 62
     7
 10
5.4722
 20
6.7756
 30
0
 11
5.5
 21
6.7756
 31
0
  0
LINE
  8
LAYER1
  6
CONTINUOUS
 62
     7
 10
5.5
 20
7.0534
 30
0
 11
5.5
 21
6.7756
 31
0
  0
LINE
  8
LAYER1
  6
CONTINUOUS
 62
     7
 10
4.25
 20
6.7756
 30
0
 11
4.2639
 21
6.7756
 31
0
  0
ENDBLK
  8
LAYER1
  0
BLOCK
  8
LAYER1
  2
Group44
 70
     0
 10
0
 20
0
 30
0
  0
LINE
  8
LAYER1
  6
CONTINUOUS
 62
     7
 10
4.25
 20
7.0534
 30
0
 11
4.25
 21
6.7756
 31
0
  0
LINE
  8
LAYER1
  6
CONTINUOUS
 62
     7
 10
5.4583
 20
6.8589
 30
0
 11
5.5
 21
6.9145
 31
0
  0
LINE
  8
LAYER1
  6
CONTINUOUS
 62
     7
 10
5.4444
 20
6.9839
 30
0
 11
5.5
 21
7.0395
 31
0
  0
LINE
  8
LAYER1
  6
CONTINUOUS
 62
     7
 10
5.3472
 20
7.0256
 30
0
 11
5.3889
 21
7.0534
 31
0
  0
LINE
  8
LAYER1
  6
CONTINUOUS
 62
     7
 10
5.2222
 20
7.0256
 30
0
 11
5.25
 21
7.0534
 31
0
  0
LINE
  8
LAYER1
  6
CONTINUOUS
 62
     7
 10
5.0833
 20
7.0256
 30
0
 11
5.1111
 21
7.0534
 31
0
  0
LINE
  8
LAYER1
  6
CONTINUOUS
 62
     7
 10
4.9583
 20
7.0256
 30
0
 11
4.9861
 21
7.0534
 31
0
  0
LINE
  8
LAYER1
  6
CONTINUOUS
 62
     7
 10
4.8194
 20
7.0256
 30
0
 11
4.8472
 21
7.0534
 31
0
  0
LINE
  8
LAYER1
  6
CONTINUOUS
 62
     7
 10
4.6806
 20
7.0256
 30
0
 11
4.7222
 21
7.0534
 31
0
  0
LINE
  8
LAYER1
  6
CONTINUOUS
 62
     7
 10
4.5556
 20
7.0256
 30
0
 11
4.5833
 21
7.0534
 31
0
  0
LINE
  8
LAYER1
  6
CONTINUOUS
 62
     7
 10
4.25
 20
6.8589
 30
0
 11
4.2917
 21
6.9006
 31
0
  0
LINE
  8
LAYER1
  6
CONTINUOUS
 62
     7
 10
4.4167
 20
7.0256
 30
0
 11
4.4583
 21
7.0534
 31
0
  0
LINE
  8
LAYER1
  6
CONTINUOUS
 62
     7
 10
4.25
 20
6.9839
 30
0
 11
4.3194
 21
7.0534
 31
0
  0
LINE
  8
LAYER1
  6
CONTINUOUS
 62
     7
 10
5.4583
 20
6.8173
 30
0
 11
5.5
 21
6.8589
 31
0
  0
LINE
  8
LAYER1
  6
CONTINUOUS
 62
     7
 10
5.4444
 20
6.9423
 30
0
 11
5.5
 21
6.9978
 31
0
  0
LINE
  8
LAYER1
  6
CONTINUOUS
 62
     7
 10
5.3889
 20
7.0256
 30
0
 11
5.4306
 21
7.0534
 31
0
  0
LINE
  8
LAYER1
  6
CONTINUOUS
 62
     7
 10
5.2639
 20
7.0256
 30
0
 11
5.2917
 21
7.0534
 31
0
  0
LINE
  8
LAYER1
  6
CONTINUOUS
 62
     7
 10
5.125
 20
7.0256
 30
0
 11
5.1667
 21
7.0534
 31
0
  0
LINE
  8
LAYER1
  6
CONTINUOUS
 62
     7
 10
5
 20
7.0256
 30
0
 11
5.0278
 21
7.0534
 31
0
  0
LINE
  8
LAYER1
  6
CONTINUOUS
 62
     7
 10
4.8611
 20
7.0256
 30
0
 11
4.8889
 21
7.0534
 31
0
  0
LINE
  8
LAYER1
  6
CONTINUOUS
 62
     7
 10
4.7361
 20
7.0256
 30
0
 11
4.7639
 21
7.0534
 31
0
  0
LINE
  8
LAYER1
  6
CONTINUOUS
 62
     7
 10
4.5972
 20
7.0256
 30
0
 11
4.625
 21
7.0534
 31
0
  0
LINE
  8
LAYER1
  6
CONTINUOUS
 62
     7
 10
4.25
 20
6.8034
 30
0
 11
4.2917
 21
6.8451
 31
0
  0
LINE
  8
LAYER1
  6
CONTINUOUS
 62
     7
 10
4.4722
 20
7.0256
 30
0
 11
4.5
 21
7.0534
 31
0
  0
ENDBLK
  8
LAYER1
  0
BLOCK
  8
LAYER1
  2
Group45
 70
     0
 10
0
 20
0
 30
0
  0
INSERT
  8
LAYER1
  2
Group43
 10
0
 20
0
 30
0
  0
INSERT
  8
LAYER1
  2
Group44
 10
0
 20
0
 30
0
  0
ENDBLK
  8
LAYER1
  0
BLOCK
  8
LAYER1
  2
Group46
 70
     0
 10
0
 20
0
 30
0
  0
LINE
  8
LAYER1
  6
CONTINUOUS
 62
     7
 10
4.25
 20
6.9423
 30
0
 11
4.3611
 21
7.0534
 31
0
  0
POLYLINE
  8
LAYER1
  6
CONTINUOUS
 62
     7
 66
     1
 70
     0
 40
0.001
 41
0.001
  0
VERTEX
  8
LAYER1
 10
4.9444
 20
6.9839
 30
0
 70
     0
  0
VERTEX
  8
LAYER1
 10
4.9583
 20
6.9839
 30
0
 70
     0
  0
VERTEX
  8
LAYER1
 10
4.9722
 20
6.9701
 30
0
 70
     0
  0
VERTEX
  8
LAYER1
 10
4.9861
 20
6.9562
 30
0
 70
     0
  0
VERTEX
  8
LAYER1
 10
5
 20
6.9423
 30
0
 70
     0
  0
VERTEX
  8
LAYER1
 10
5
 20
6.9284
 30
0
 70
     0
  0
VERTEX
  8
LAYER1
 10
5
 20
6.9145
 30
0
 70
     0
  0
VERTEX
  8
LAYER1
 10
5
 20
6.9145
 30
0
 70
     0
  0
SEQEND
  0
POLYLINE
  8
LAYER1
  6
CONTINUOUS
 62
     7
 66
     1
 70
     0
 40
0.001
 41
0.001
  0
VERTEX
  8
LAYER1
 10
5
 20
5.6367
 30
0
 70
     0
  0
VERTEX
  8
LAYER1
 10
5
 20
5.6228
 30
0
 70
     0
  0
VERTEX
  8
LAYER1
 10
5
 20
5.6089
 30
0
 70
     0
  0
VERTEX
  8
LAYER1
 10
4.9861
 20
5.5951
 30
0
 70
     0
  0
VERTEX
  8
LAYER1
 10
4.9722
 20
5.5812
 30
0
 70
     0
  0
VERTEX
  8
LAYER1
 10
4.9583
 20
5.5812
 30
0
 70
     0
  0
VERTEX
  8
LAYER1
 10
4.9444
 20
5.5812
 30
0
 70
     0
  0
SEQEND
  0
LINE
  8
LAYER1
  6
CONTINUOUS
 62
     7
 10
5
 20
6.9145
 30
0
 11
5
 21
5.6367
 31
0
  0
POLYLINE
  8
LAYER1
  6
CONTINUOUS
 62
     7
 66
     1
 70
     0
 40
0.001
 41
0.001
  0
VERTEX
  8
LAYER1
 10
4.7222
 20
6.9839
 30
0
 70
     0
  0
VERTEX
  8
LAYER1
 10
4.7083
 20
6.9978
 30
0
 70
     0
  0
VERTEX
  8
LAYER1
 10
4.7083
 20
7.0117
 30
0
 70
     0
  0
VERTEX
  8
LAYER1
 10
4.7083
 20
7.0117
 30
0
 70
     0
  0
SEQEND
  0
LINE
  8
LAYER1
  6
CONTINUOUS
 62
     7
 10
4.9444
 20
6.9839
 30
0
 11
4.7222
 21
6.9839
 31
0
  0
POLYLINE
  8
LAYER1
  6
CONTINUOUS
 62
     7
 66
     1
 70
     0
 40
0.001
 41
0.001
  0
VERTEX
  8
LAYER1
 10
4.7083
 20
5.5534
 30
0
 70
     0
  0
VERTEX
  8
LAYER1
 10
4.7083
 20
5.5673
 30
0
 70
     0
  0
VERTEX
  8
LAYER1
 10
4.7222
 20
5.5673
 30
0
 70
     0
  0
SEQEND
  0
LINE
  8
LAYER1
  6
CONTINUOUS
 62
     7
 10
4.9444
 20
5.5812
 30
0
 11
4.7222
 21
5.5673
 31
0
  0
LINE
  8
LAYER1
  6
CONTINUOUS
 62
     7
 10
5.0417
 20
7.0256
 30
0
 11
5.0417
 21
5.5256
 31
0
  0
POLYLINE
  8
LAYER1
  6
CONTINUOUS
 62
     7
 66
     1
 70
     0
 40
0.001
 41
0.001
  0
VERTEX
  8
LAYER1
 10
5.0417
 20
7.0256
 30
0
 70
     0
  0
VERTEX
  8
LAYER1
 10
4.7083
 20
7.0256
 30
0
 70
     0
  0
VERTEX
  8
LAYER1
 10
4.7083
 20
7.0117
 30
0
 70
     0
  0
SEQEND
  0
LINE
  8
LAYER1
  6
CONTINUOUS
 62
     7
 10
4.7083
 20
5.5534
 30
0
 11
4.7083
 21
5.5256
 31
0
  0
ENDBLK
  8
LAYER1
  0
BLOCK
  8
LAYER1
  2
Group47
 70
     0
 10
0
 20
0
 30
0
  0
LINE
  8
LAYER1
  6
CONTINUOUS
 62
     7
 10
5.0417
 20
5.5256
 30
0
 11
4.7083
 21
5.5256
 31
0
  0
LINE
  8
LAYER1
  6
CONTINUOUS
 62
     7
 10
4.7639
 20
5.5673
 30
0
 11
4.8056
 21
5.5256
 31
0
  0
LINE
  8
LAYER1
  6
CONTINUOUS
 62
     7
 10
4.9028
 20
5.5812
 30
0
 11
4.9444
 21
5.5256
 31
0
  0
LINE
  8
LAYER1
  6
CONTINUOUS
 62
     7
 10
4.9861
 20
5.6089
 30
0
 11
5.0417
 21
5.5673
 31
0
  0
LINE
  8
LAYER1
  6
CONTINUOUS
 62
     7
 10
5
 20
5.7339
 30
0
 11
5.0417
 21
5.7062
 31
0
  0
LINE
  8
LAYER1
  6
CONTINUOUS
 62
     7
 10
5
 20
5.8728
 30
0
 11
5.0417
 21
5.8312
 31
0
  0
LINE
  8
LAYER1
  6
CONTINUOUS
 62
     7
 10
5
 20
5.9978
 30
0
 11
5.0417
 21
5.9701
 31
0
  0
LINE
  8
LAYER1
  6
CONTINUOUS
 62
     7
 10
5
 20
6.1367
 30
0
 11
5.0417
 21
6.0951
 31
0
  0
LINE
  8
LAYER1
  6
CONTINUOUS
 62
     7
 10
5
 20
6.2756
 30
0
 11
5.0417
 21
6.2339
 31
0
  0
LINE
  8
LAYER1
  6
CONTINUOUS
 62
     7
 10
5
 20
6.4006
 30
0
 11
5.0417
 21
6.3728
 31
0
  0
LINE
  8
LAYER1
  6
CONTINUOUS
 62
     7
 10
5
 20
6.5395
 30
0
 11
5.0417
 21
6.4978
 31
0
  0
LINE
  8
LAYER1
  6
CONTINUOUS
 62
     7
 10
5
 20
6.6645
 30
0
 11
5.0417
 21
6.6367
 31
0
  0
LINE
  8
LAYER1
  6
CONTINUOUS
 62
     7
 10
4.7778
 20
7.0256
 30
0
 11
4.8194
 21
6.9839
 31
0
  0
LINE
  8
LAYER1
  6
CONTINUOUS
 62
     7
 10
5
 20
6.8034
 30
0
 11
5.0417
 21
6.7617
 31
0
  0
LINE
  8
LAYER1
  6
CONTINUOUS
 62
     7
 10
4.9028
 20
7.0256
 30
0
 11
4.9583
 21
6.9701
 31
0
  0
LINE
  8
LAYER1
  6
CONTINUOUS
 62
     7
 10
5
 20
6.9423
 30
0
 11
5.0417
 21
6.9006
 31
0
  0
LINE
  8
LAYER1
  6
CONTINUOUS
 62
     7
 10
4.7222
 20
5.5673
 30
0
 11
4.7639
 21
5.5256
 31
0
  0
LINE
  8
LAYER1
  6
CONTINUOUS
 62
     7
 10
4.8472
 20
5.5812
 30
0
 11
4.9028
 21
5.5256
 31
0
  0
LINE
  8
LAYER1
  6
CONTINUOUS
 62
     7
 10
4.9722
 20
5.5951
 30
0
 11
5.0278
 21
5.5256
 31
0
  0
LINE
  8
LAYER1
  6
CONTINUOUS
 62
     7
 10
5
 20
5.6923
 30
0
 11
5.0417
 21
5.6645
 31
0
  0
LINE
  8
LAYER1
  6
CONTINUOUS
 62
     7
 10
5
 20
5.8312
 30
0
 11
5.0417
 21
5.7895
 31
0
  0
LINE
  8
LAYER1
  6
CONTINUOUS
 62
     7
 10
5
 20
5.9562
 30
0
 11
5.0417
 21
5.9284
 31
0
  0
LINE
  8
LAYER1
  6
CONTINUOUS
 62
     7
 10
5
 20
6.0951
 30
0
 11
5.0417
 21
6.0534
 31
0
  0
LINE
  8
LAYER1
  6
CONTINUOUS
 62
     7
 10
5
 20
6.2201
 30
0
 11
5.0417
 21
6.1923
 31
0
  0
LINE
  8
LAYER1
  6
CONTINUOUS
 62
     7
 10
5
 20
6.3589
 30
0
 11
5.0417
 21
6.3173
 31
0
  0
LINE
  8
LAYER1
  6
CONTINUOUS
 62
     7
 10
5
 20
6.4978
 30
0
 11
5.0417
 21
6.4562
 31
0
  0
LINE
  8
LAYER1
  6
CONTINUOUS
 62
     7
 10
5
 20
6.6228
 30
0
 11
5.0417
 21
6.5812
 31
0
  0
LINE
  8
LAYER1
  6
CONTINUOUS
 62
     7
 10
4.7222
 20
7.0256
 30
0
 11
4.7778
 21
6.9839
 31
0
  0
LINE
  8
LAYER1
  6
CONTINUOUS
 62
     7
 10
5
 20
6.7617
 30
0
 11
5.0417
 21
6.7201
 31
0
  0
LINE
  8
LAYER1
  6
CONTINUOUS
 62
     7
 10
4.8611
 20
7.0256
 30
0
 11
4.9167
 21
6.9839
 31
0
  0
LINE
  8
LAYER1
  6
CONTINUOUS
 62
     7
 10
5
 20
6.8867
 30
0
 11
5.0417
 21
6.8589
 31
0
  0
ENDBLK
  8
LAYER1
  0
BLOCK
  8
LAYER1
  2
Group48
 70
     0
 10
0
 20
0
 30
0
  0
INSERT
  8
LAYER1
  2
Group46
 10
0
 20
0
 30
0
  0
INSERT
  8
LAYER1
  2
Group47
 10
0
 20
0
 30
0
  0
ENDBLK
  8
LAYER1
  0
BLOCK
  8
LAYER1
  2
Group49
 70
     0
 10
0
 20
0
 30
0
  0
INSERT
  8
LAYER1
  2
Group45
 10
0
 20
0
 30
0
  0
INSERT
  8
LAYER1
  2
Group48
 10
0
 20
0
 30
0
  0
ENDBLK
  8
LAYER1
  0
BLOCK
  8
LAYER1
  2
Group50
 70
     0
 10
0
 20
0
 30
0
  0
LINE
  8
LAYER1
  6
CONTINUOUS
 62
     7
 10
5
 20
7.0256
 30
0
 11
5.0417
 21
6.9839
 31
0
  0
POLYLINE
  8
LAYER1
  6
CONTINUOUS
 62
     7
 66
     1
 70
     0
 40
0.001
 41
0.001
  0
VERTEX
  8
LAYER1
 10
2.9167
 20
9.8173
 30
0
 70
     0
  0
VERTEX
  8
LAYER1
 10
2.9306
 20
9.8173
 30
0
 70
     0
  0
VERTEX
  8
LAYER1
 10
2.9444
 20
9.8034
 30
0
 70
     0
  0
VERTEX
  8
LAYER1
 10
2.9444
 20
9.8034
 30
0
 70
     0
  0
VERTEX
  8
LAYER1
 10
2.9583
 20
9.7895
 30
0
 70
     0
  0
VERTEX
  8
LAYER1
 10
2.9583
 20
9.7756
 30
0
 70
     0
  0
VERTEX
  8
LAYER1
 10
2.9583
 20
9.7756
 30
0
 70
     0
  0
VERTEX
  8
LAYER1
 10
2.9583
 20
9.7756
 30
0
 70
     0
  0
SEQEND
  0
POLYLINE
  8
LAYER1
  6
CONTINUOUS
 62
     7
 66
     1
 70
     0
 40
0.001
 41
0.001
  0
VERTEX
  8
LAYER1
 10
2.9583
 20
9.1784
 30
0
 70
     0
  0
VERTEX
  8
LAYER1
 10
2.9583
 20
9.1645
 30
0
 70
     0
  0
VERTEX
  8
LAYER1
 10
2.9583
 20
9.1506
 30
0
 70
     0
  0
VERTEX
  8
LAYER1
 10
2.9444
 20
9.1367
 30
0
 70
     0
  0
VERTEX
  8
LAYER1
 10
2.9444
 20
9.1367
 30
0
 70
     0
  0
VERTEX
  8
LAYER1
 10
2.9306
 20
9.1367
 30
0
 70
     0
  0
VERTEX
  8
LAYER1
 10
2.9167
 20
9.1367
 30
0
 70
     0
  0
SEQEND
  0
LINE
  8
LAYER1
  6
CONTINUOUS
 62
     7
 10
2.9583
 20
9.7756
 30
0
 11
2.9583
 21
9.1784
 31
0
  0
LINE
  8
LAYER1
  6
CONTINUOUS
 62
     7
 10
2.9722
 20
9.8451
 30
0
 11
2.9722
 21
9.0951
 31
0
  0
LINE
  8
LAYER1
  6
CONTINUOUS
 62
     7
 10
2.9722
 20
9.8451
 30
0
 11
2.7639
 21
9.8451
 31
0
  0
POLYLINE
  8
LAYER1
  6
CONTINUOUS
 62
     7
 66
     1
 70
     0
 40
0.001
 41
0.001
  0
VERTEX
  8
LAYER1
 10
2.7778
 20
9.8173
 30
0
 70
     0
  0
VERTEX
  8
LAYER1
 10
2.7778
 20
9.8173
 30
0
 70
     0
  0
VERTEX
  8
LAYER1
 10
2.7639
 20
9.8312
 30
0
 70
     0
  0
VERTEX
  8
LAYER1
 10
2.7639
 20
9.8312
 30
0
 70
     0
  0
SEQEND
  0
LINE
  8
LAYER1
  6
CONTINUOUS
 62
     7
 10
2.7639
 20
9.8451
 30
0
 11
2.7639
 21
9.8312
 31
0
  0
LINE
  8
LAYER1
  6
CONTINUOUS
 62
     7
 10
2.9167
 20
9.8173
 30
0
 11
2.7778
 21
9.8173
 31
0
  0
POLYLINE
  8
LAYER1
  6
CONTINUOUS
 62
     7
 66
     1
 70
     0
 40
0.001
 41
0.001
  0
VERTEX
  8
LAYER1
 10
2.7639
 20
9.1089
 30
0
 70
     0
  0
VERTEX
  8
LAYER1
 10
2.7639
 20
9.1089
 30
0
 70
     0
  0
VERTEX
  8
LAYER1
 10
2.7778
 20
9.1228
 30
0
 70
     0
  0
VERTEX
  8
LAYER1
 10
2.7778
 20
9.1228
 30
0
 70
     0
  0
VERTEX
  8
LAYER1
 10
2.7778
 20
9.1228
 30
0
 70
     0
  0
SEQEND
  0
LINE
  8
LAYER1
  6
CONTINUOUS
 62
     7
 10
2.9167
 20
9.1367
 30
0
 11
2.7778
 21
9.1228
 31
0
  0
LINE
  8
LAYER1
  6
CONTINUOUS
 62
     7
 10
2.7639
 20
9.1089
 30
0
 11
2.7639
 21
9.0951
 31
0
  0
ENDBLK
  8
LAYER1
  0
BLOCK
  8
LAYER1
  2
Group51
 70
     0
 10
0
 20
0
 30
0
  0
LINE
  8
LAYER1
  6
CONTINUOUS
 62
     7
 10
2.9722
 20
9.0951
 30
0
 11
2.7639
 21
9.0951
 31
0
  0
LINE
  8
LAYER1
  6
CONTINUOUS
 62
     7
 10
2.8194
 20
9.1228
 30
0
 11
2.8472
 21
9.0951
 31
0
  0
LINE
  8
LAYER1
  6
CONTINUOUS
 62
     7
 10
2.9444
 20
9.1367
 30
0
 11
2.9722
 21
9.1089
 31
0
  0
LINE
  8
LAYER1
  6
CONTINUOUS
 62
     7
 10
2.9583
 20
9.2617
 30
0
 11
2.9722
 21
9.2478
 31
0
  0
LINE
  8
LAYER1
  6
CONTINUOUS
 62
     7
 10
2.9583
 20
9.4006
 30
0
 11
2.9722
 21
9.3728
 31
0
  0
LINE
  8
LAYER1
  6
CONTINUOUS
 62
     7
 10
2.9583
 20
9.5256
 30
0
 11
2.9722
 21
9.5117
 31
0
  0
LINE
  8
LAYER1
  6
CONTINUOUS
 62
     7
 10
2.7639
 20
9.8451
 30
0
 11
2.7917
 21
9.8173
 31
0
  0
LINE
  8
LAYER1
  6
CONTINUOUS
 62
     7
 10
2.9583
 20
9.6645
 30
0
 11
2.9722
 21
9.6367
 31
0
  0
LINE
  8
LAYER1
  6
CONTINUOUS
 62
     7
 10
2.9028
 20
9.8451
 30
0
 11
2.9722
 21
9.7756
 31
0
  0
LINE
  8
LAYER1
  6
CONTINUOUS
 62
     7
 10
2.7778
 20
9.1228
 30
0
 11
2.8056
 21
9.0951
 31
0
  0
LINE
  8
LAYER1
  6
CONTINUOUS
 62
     7
 10
2.9028
 20
9.1367
 30
0
 11
2.9444
 21
9.0951
 31
0
  0
LINE
  8
LAYER1
  6
CONTINUOUS
 62
     7
 10
2.9583
 20
9.2201
 30
0
 11
2.9722
 21
9.1923
 31
0
  0
LINE
  8
LAYER1
  6
CONTINUOUS
 62
     7
 10
2.9583
 20
9.3451
 30
0
 11
2.9722
 21
9.3312
 31
0
  0
LINE
  8
LAYER1
  6
CONTINUOUS
 62
     7
 10
2.9583
 20
9.4839
 30
0
 11
2.9722
 21
9.4701
 31
0
  0
LINE
  8
LAYER1
  6
CONTINUOUS
 62
     7
 10
2.9583
 20
9.6228
 30
0
 11
2.9722
 21
9.5951
 31
0
  0
LINE
  8
LAYER1
  6
CONTINUOUS
 62
     7
 10
2.8611
 20
9.8451
 30
0
 11
2.8889
 21
9.8173
 31
0
  0
ENDBLK
  8
LAYER1
  0
BLOCK
  8
LAYER1
  2
Group52
 70
     0
 10
0
 20
0
 30
0
  0
INSERT
  8
LAYER1
  2
Group50
 10
0
 20
0
 30
0
  0
INSERT
  8
LAYER1
  2
Group51
 10
0
 20
0
 30
0
  0
ENDBLK
  8
LAYER1
  0
BLOCK
  8
LAYER1
  2
Group53
 70
     0
 10
0
 20
0
 30
0
  0
LINE
  8
LAYER1
  6
CONTINUOUS
 62
     7
 10
2.9583
 20
9.7478
 30
0
 11
2.9722
 21
9.7339
 31
0
  0
POLYLINE
  8
LAYER1
  6
CONTINUOUS
 62
     7
 66
     1
 70
     0
 40
0.001
 41
0.001
  0
VERTEX
  8
LAYER1
 10
2.4861
 20
9.8034
 30
0
 70
     0
  0
VERTEX
  8
LAYER1
 10
2.4861
 20
9.8034
 30
0
 70
     0
  0
VERTEX
  8
LAYER1
 10
2.5
 20
9.8312
 30
0
 70
     0
  0
VERTEX
  8
LAYER1
 10
2.5
 20
9.8312
 30
0
 70
     0
  0
VERTEX
  8
LAYER1
 10
2.5
 20
9.8312
 30
0
 70
     0
  0
VERTEX
  8
LAYER1
 10
2.5278
 20
9.8451
 30
0
 70
     0
  0
VERTEX
  8
LAYER1
 10
2.5417
 20
9.8451
 30
0
 70
     0
  0
SEQEND
  0
POLYLINE
  8
LAYER1
  6
CONTINUOUS
 62
     7
 66
     1
 70
     0
 40
0.001
 41
0.001
  0
VERTEX
  8
LAYER1
 10
3.2083
 20
9.8451
 30
0
 70
     0
  0
VERTEX
  8
LAYER1
 10
3.2222
 20
9.8451
 30
0
 70
     0
  0
VERTEX
  8
LAYER1
 10
3.2361
 20
9.8312
 30
0
 70
     0
  0
VERTEX
  8
LAYER1
 10
3.2361
 20
9.8312
 30
0
 70
     0
  0
VERTEX
  8
LAYER1
 10
3.25
 20
9.8173
 30
0
 70
     0
  0
VERTEX
  8
LAYER1
 10
3.25
 20
9.8034
 30
0
 70
     0
  0
VERTEX
  8
LAYER1
 10
3.25
 20
9.8034
 30
0
 70
     0
  0
SEQEND
  0
LINE
  8
LAYER1
  6
CONTINUOUS
 62
     7
 10
2.5417
 20
9.8451
 30
0
 11
3.2083
 21
9.8451
 31
0
  0
LINE
  8
LAYER1
  6
CONTINUOUS
 62
     7
 10
2.4583
 20
9.8728
 30
0
 11
3.2917
 21
9.8728
 31
0
  0
POLYLINE
  8
LAYER1
  6
CONTINUOUS
 62
     7
 66
     1
 70
     0
 40
0.001
 41
0.001
  0
VERTEX
  8
LAYER1
 10
2.4861
 20
9.6645
 30
0
 70
     0
  0
VERTEX
  8
LAYER1
 10
2.4861
 20
9.6506
 30
0
 70
     0
  0
VERTEX
  8
LAYER1
 10
2.4861
 20
9.6506
 30
0
 70
     0
  0
VERTEX
  8
LAYER1
 10
2.4722
 20
9.6506
 30
0
 70
     0
  0
VERTEX
  8
LAYER1
 10
2.4722
 20
9.6506
 30
0
 70
     0
  0
SEQEND
  0
LINE
  8
LAYER1
  6
CONTINUOUS
 62
     7
 10
2.4861
 20
9.8034
 30
0
 11
2.4861
 21
9.6645
 31
0
  0
POLYLINE
  8
LAYER1
  6
CONTINUOUS
 62
     7
 66
     1
 70
     0
 40
0.001
 41
0.001
  0
VERTEX
  8
LAYER1
 10
3.2778
 20
9.6506
 30
0
 70
     0
  0
VERTEX
  8
LAYER1
 10
3.2639
 20
9.6506
 30
0
 70
     0
  0
VERTEX
  8
LAYER1
 10
3.2639
 20
9.6645
 30
0
 70
     0
  0
SEQEND
  0
LINE
  8
LAYER1
  6
CONTINUOUS
 62
     7
 10
3.25
 20
9.8034
 30
0
 11
3.2639
 21
9.6645
 31
0
  0
LINE
  8
LAYER1
  6
CONTINUOUS
 62
     7
 10
2.4583
 20
9.6506
 30
0
 11
2.4722
 21
9.6506
 31
0
  0
LINE
  8
LAYER1
  6
CONTINUOUS
 62
     7
 10
2.4583
 20
9.8728
 30
0
 11
2.4583
 21
9.6506
 31
0
  0
LINE
  8
LAYER1
  6
CONTINUOUS
 62
     7
 10
3.2778
 20
9.6506
 30
0
 11
3.2917
 21
9.6506
 31
0
  0
ENDBLK
  8
LAYER1
  0
BLOCK
  8
LAYER1
  2
Group54
 70
     0
 10
0
 20
0
 30
0
  0
LINE
  8
LAYER1
  6
CONTINUOUS
 62
     7
 10
3.2917
 20
9.8728
 30
0
 11
3.2917
 21
9.6506
 31
0
  0
LINE
  8
LAYER1
  6
CONTINUOUS
 62
     7
 10
3.2639
 20
9.7478
 30
0
 11
3.2917
 21
9.7756
 31
0
  0
LINE
  8
LAYER1
  6
CONTINUOUS
 62
     7
 10
3.2222
 20
9.8451
 30
0
 11
3.25
 21
9.8728
 31
0
  0
LINE
  8
LAYER1
  6
CONTINUOUS
 62
     7
 10
3.0972
 20
9.8451
 30
0
 11
3.1111
 21
9.8728
 31
0
  0
LINE
  8
LAYER1
  6
CONTINUOUS
 62
     7
 10
2.9583
 20
9.8451
 30
0
 11
2.9861
 21
9.8728
 31
0
  0
LINE
  8
LAYER1
  6
CONTINUOUS
 62
     7
 10
2.8333
 20
9.8451
 30
0
 11
2.8472
 21
9.8728
 31
0
  0
LINE
  8
LAYER1
  6
CONTINUOUS
 62
     7
 10
2.6944
 20
9.8451
 30
0
 11
2.7222
 21
9.8728
 31
0
  0
LINE
  8
LAYER1
  6
CONTINUOUS
 62
     7
 10
2.4583
 20
9.7339
 30
0
 11
2.4861
 21
9.7617
 31
0
  0
LINE
  8
LAYER1
  6
CONTINUOUS
 62
     7
 10
2.5694
 20
9.8451
 30
0
 11
2.5833
 21
9.8728
 31
0
  0
LINE
  8
LAYER1
  6
CONTINUOUS
 62
     7
 10
3.2639
 20
9.6923
 30
0
 11
3.2917
 21
9.7339
 31
0
  0
LINE
  8
LAYER1
  6
CONTINUOUS
 62
     7
 10
3.25
 20
9.8173
 30
0
 11
3.2917
 21
9.8589
 31
0
  0
LINE
  8
LAYER1
  6
CONTINUOUS
 62
     7
 10
3.1389
 20
9.8451
 30
0
 11
3.1667
 21
9.8728
 31
0
  0
LINE
  8
LAYER1
  6
CONTINUOUS
 62
     7
 10
3.0139
 20
9.8451
 30
0
 11
3.0278
 21
9.8728
 31
0
  0
LINE
  8
LAYER1
  6
CONTINUOUS
 62
     7
 10
2.875
 20
9.8451
 30
0
 11
2.9028
 21
9.8728
 31
0
  0
LINE
  8
LAYER1
  6
CONTINUOUS
 62
     7
 10
2.7361
 20
9.8451
 30
0
 11
2.7639
 21
9.8728
 31
0
  0
LINE
  8
LAYER1
  6
CONTINUOUS
 62
     7
 10
2.4583
 20
9.6923
 30
0
 11
2.4861
 21
9.7201
 31
0
  0
LINE
  8
LAYER1
  6
CONTINUOUS
 62
     7
 10
2.6111
 20
9.8451
 30
0
 11
2.625
 21
9.8728
 31
0
  0
ENDBLK
  8
LAYER1
  0
BLOCK
  8
LAYER1
  2
Group55
 70
     0
 10
0
 20
0
 30
0
  0
INSERT
  8
LAYER1
  2
Group53
 10
0
 20
0
 30
0
  0
INSERT
  8
LAYER1
  2
Group54
 10
0
 20
0
 30
0
  0
ENDBLK
  8
LAYER1
  0
BLOCK
  8
LAYER1
  2
Group56
 70
     0
 10
0
 20
0
 30
0
  0
INSERT
  8
LAYER1
  2
Group52
 10
0
 20
0
 30
0
  0
INSERT
  8
LAYER1
  2
Group55
 10
0
 20
0
 30
0
  0
ENDBLK
  8
LAYER1
  0
BLOCK
  8
LAYER1
  2
Group57
 70
     0
 10
0
 20
0
 30
0
  0
LINE
  8
LAYER1
  6
CONTINUOUS
 62
     7
 10
2.4583
 20
9.8173
 30
0
 11
2.5
 21
9.8728
 31
0
  0
POLYLINE
  8
LAYER1
  6
CONTINUOUS
 62
     7
 66
     1
 70
     0
 40
0.001
 41
0.001
  0
VERTEX
  8
LAYER1
 10
2.9167
 20
7.8728
 30
0
 70
     0
  0
VERTEX
  8
LAYER1
 10
2.9306
 20
7.8728
 30
0
 70
     0
  0
VERTEX
  8
LAYER1
 10
2.9444
 20
7.8589
 30
0
 70
     0
  0
VERTEX
  8
LAYER1
 10
2.9444
 20
7.8589
 30
0
 70
     0
  0
VERTEX
  8
LAYER1
 10
2.9583
 20
7.8451
 30
0
 70
     0
  0
VERTEX
  8
LAYER1
 10
2.9583
 20
7.8312
 30
0
 70
     0
  0
VERTEX
  8
LAYER1
 10
2.9583
 20
7.8312
 30
0
 70
     0
  0
VERTEX
  8
LAYER1
 10
2.9583
 20
7.8312
 30
0
 70
     0
  0
SEQEND
  0
POLYLINE
  8
LAYER1
  6
CONTINUOUS
 62
     7
 66
     1
 70
     0
 40
0.001
 41
0.001
  0
VERTEX
  8
LAYER1
 10
2.9583
 20
7.1506
 30
0
 70
     0
  0
VERTEX
  8
LAYER1
 10
2.9583
 20
7.1367
 30
0
 70
     0
  0
VERTEX
  8
LAYER1
 10
2.9583
 20
7.1367
 30
0
 70
     0
  0
VERTEX
  8
LAYER1
 10
2.9444
 20
7.1228
 30
0
 70
     0
  0
VERTEX
  8
LAYER1
 10
2.9306
 20
7.1089
 30
0
 70
     0
  0
VERTEX
  8
LAYER1
 10
2.9306
 20
7.1089
 30
0
 70
     0
  0
VERTEX
  8
LAYER1
 10
2.9167
 20
7.1089
 30
0
 70
     0
  0
SEQEND
  0
LINE
  8
LAYER1
  6
CONTINUOUS
 62
     7
 10
2.9583
 20
7.8312
 30
0
 11
2.9583
 21
7.1506
 31
0
  0
LINE
  8
LAYER1
  6
CONTINUOUS
 62
     7
 10
2.9861
 20
7.9145
 30
0
 11
2.9861
 21
7.0812
 31
0
  0
POLYLINE
  8
LAYER1
  6
CONTINUOUS
 62
     7
 66
     1
 70
     0
 40
0.001
 41
0.001
  0
VERTEX
  8
LAYER1
 10
2.7778
 20
7.8867
 30
0
 70
     0
  0
VERTEX
  8
LAYER1
 10
2.7639
 20
7.8867
 30
0
 70
     0
  0
VERTEX
  8
LAYER1
 10
2.7639
 20
7.8867
 30
0
 70
     0
  0
VERTEX
  8
LAYER1
 10
2.7639
 20
7.8867
 30
0
 70
     0
  0
SEQEND
  0
LINE
  8
LAYER1
  6
CONTINUOUS
 62
     7
 10
2.9167
 20
7.8728
 30
0
 11
2.7778
 21
7.8867
 31
0
  0
POLYLINE
  8
LAYER1
  6
CONTINUOUS
 62
     7
 66
     1
 70
     0
 40
0.001
 41
0.001
  0
VERTEX
  8
LAYER1
 10
2.7639
 20
7.0951
 30
0
 70
     0
  0
VERTEX
  8
LAYER1
 10
2.7639
 20
7.0951
 30
0
 70
     0
  0
VERTEX
  8
LAYER1
 10
2.7639
 20
7.0951
 30
0
 70
     0
  0
VERTEX
  8
LAYER1
 10
2.7778
 20
7.1089
 30
0
 70
     0
  0
VERTEX
  8
LAYER1
 10
2.7778
 20
7.1089
 30
0
 70
     0
  0
SEQEND
  0
LINE
  8
LAYER1
  6
CONTINUOUS
 62
     7
 10
2.9167
 20
7.1089
 30
0
 11
2.7778
 21
7.1089
 31
0
  0
LINE
  8
LAYER1
  6
CONTINUOUS
 62
     7
 10
2.7639
 20
7.9145
 30
0
 11
2.7639
 21
7.8867
 31
0
  0
LINE
  8
LAYER1
  6
CONTINUOUS
 62
     7
 10
2.9861
 20
7.9145
 30
0
 11
2.7639
 21
7.9145
 31
0
  0
LINE
  8
LAYER1
  6
CONTINUOUS
 62
     7
 10
2.7639
 20
7.0951
 30
0
 11
2.7639
 21
7.0812
 31
0
  0
ENDBLK
  8
LAYER1
  0
BLOCK
  8
LAYER1
  2
Group58
 70
     0
 10
0
 20
0
 30
0
  0
LINE
  8
LAYER1
  6
CONTINUOUS
 62
     7
 10
2.9861
 20
7.0812
 30
0
 11
2.7639
 21
7.0812
 31
0
  0
LINE
  8
LAYER1
  6
CONTINUOUS
 62
     7
 10
2.8611
 20
7.1089
 30
0
 11
2.8889
 21
7.0812
 31
0
  0
LINE
  8
LAYER1
  6
CONTINUOUS
 62
     7
 10
2.9583
 20
7.1367
 30
0
 11
2.9861
 21
7.1089
 31
0
  0
LINE
  8
LAYER1
  6
CONTINUOUS
 62
     7
 10
2.9583
 20
7.2617
 30
0
 11
2.9861
 21
7.2478
 31
0
  0
LINE
  8
LAYER1
  6
CONTINUOUS
 62
     7
 10
2.9583
 20
7.4006
 30
0
 11
2.9861
 21
7.3728
 31
0
  0
LINE
  8
LAYER1
  6
CONTINUOUS
 62
     7
 10
2.9583
 20
7.5395
 30
0
 11
2.9861
 21
7.5117
 31
0
  0
LINE
  8
LAYER1
  6
CONTINUOUS
 62
     7
 10
2.9583
 20
7.6645
 30
0
 11
2.9861
 21
7.6506
 31
0
  0
LINE
  8
LAYER1
  6
CONTINUOUS
 62
     7
 10
2.8472
 20
7.9145
 30
0
 11
2.875
 21
7.8728
 31
0
  0
LINE
  8
LAYER1
  6
CONTINUOUS
 62
     7
 10
2.9583
 20
7.8034
 30
0
 11
2.9861
 21
7.7756
 31
0
  0
LINE
  8
LAYER1
  6
CONTINUOUS
 62
     7
 10
2.8056
 20
7.1089
 30
0
 11
2.8472
 21
7.0812
 31
0
  0
LINE
  8
LAYER1
  6
CONTINUOUS
 62
     7
 10
2.9306
 20
7.1089
 30
0
 11
2.9722
 21
7.0812
 31
0
  0
LINE
  8
LAYER1
  6
CONTINUOUS
 62
     7
 10
2.9583
 20
7.2201
 30
0
 11
2.9861
 21
7.2062
 31
0
  0
LINE
  8
LAYER1
  6
CONTINUOUS
 62
     7
 10
2.9583
 20
7.3589
 30
0
 11
2.9861
 21
7.3312
 31
0
  0
LINE
  8
LAYER1
  6
CONTINUOUS
 62
     7
 10
2.9583
 20
7.4839
 30
0
 11
2.9861
 21
7.4701
 31
0
  0
LINE
  8
LAYER1
  6
CONTINUOUS
 62
     7
 10
2.9583
 20
7.6228
 30
0
 11
2.9861
 21
7.5951
 31
0
  0
LINE
  8
LAYER1
  6
CONTINUOUS
 62
     7
 10
2.8056
 20
7.9145
 30
0
 11
2.8333
 21
7.8728
 31
0
  0
LINE
  8
LAYER1
  6
CONTINUOUS
 62
     7
 10
2.9583
 20
7.7478
 30
0
 11
2.9861
 21
7.7339
 31
0
  0
ENDBLK
  8
LAYER1
  0
BLOCK
  8
LAYER1
  2
Group59
 70
     0
 10
0
 20
0
 30
0
  0
INSERT
  8
LAYER1
  2
Group57
 10
0
 20
0
 30
0
  0
INSERT
  8
LAYER1
  2
Group58
 10
0
 20
0
 30
0
  0
ENDBLK
  8
LAYER1
  0
BLOCK
  8
LAYER1
  2
Group60
 70
     0
 10
0
 20
0
 30
0
  0
LINE
  8
LAYER1
  6
CONTINUOUS
 62
     7
 10
2.9306
 20
7.9145
 30
0
 11
2.9861
 21
7.8728
 31
0
  0
POLYLINE
  8
LAYER1
  6
CONTINUOUS
 62
     7
 66
     1
 70
     0
 40
0.001
 41
0.001
  0
VERTEX
  8
LAYER1
 10
2.4167
 20
7.8589
 30
0
 70
     0
  0
VERTEX
  8
LAYER1
 10
2.4167
 20
7.8589
 30
0
 70
     0
  0
VERTEX
  8
LAYER1
 10
2.4306
 20
7.8867
 30
0
 70
     0
  0
VERTEX
  8
LAYER1
 10
2.4306
 20
7.9006
 30
0
 70
     0
  0
VERTEX
  8
LAYER1
 10
2.4306
 20
7.9006
 30
0
 70
     0
  0
VERTEX
  8
LAYER1
 10
2.4583
 20
7.9145
 30
0
 70
     0
  0
VERTEX
  8
LAYER1
 10
2.4583
 20
7.9145
 30
0
 70
     0
  0
SEQEND
  0
POLYLINE
  8
LAYER1
  6
CONTINUOUS
 62
     7
 66
     1
 70
     0
 40
0.001
 41
0.001
  0
VERTEX
  8
LAYER1
 10
3.2778
 20
7.9145
 30
0
 70
     0
  0
VERTEX
  8
LAYER1
 10
3.2917
 20
7.9145
 30
0
 70
     0
  0
VERTEX
  8
LAYER1
 10
3.3194
 20
7.9006
 30
0
 70
     0
  0
VERTEX
  8
LAYER1
 10
3.3194
 20
7.9006
 30
0
 70
     0
  0
VERTEX
  8
LAYER1
 10
3.3333
 20
7.8867
 30
0
 70
     0
  0
VERTEX
  8
LAYER1
 10
3.3333
 20
7.8589
 30
0
 70
     0
  0
VERTEX
  8
LAYER1
 10
3.3333
 20
7.8589
 30
0
 70
     0
  0
SEQEND
  0
LINE
  8
LAYER1
  6
CONTINUOUS
 62
     7
 10
2.4583
 20
7.9145
 30
0
 11
3.2778
 21
7.9145
 31
0
  0
LINE
  8
LAYER1
  6
CONTINUOUS
 62
     7
 10
2.375
 20
7.9284
 30
0
 11
3.375
 21
7.9284
 31
0
  0
POLYLINE
  8
LAYER1
  6
CONTINUOUS
 62
     7
 66
     1
 70
     0
 40
0.001
 41
0.001
  0
VERTEX
  8
LAYER1
 10
2.4028
 20
7.7062
 30
0
 70
     0
  0
VERTEX
  8
LAYER1
 10
2.4028
 20
7.6923
 30
0
 70
     0
  0
VERTEX
  8
LAYER1
 10
2.3889
 20
7.6923
 30
0
 70
     0
  0
SEQEND
  0
LINE
  8
LAYER1
  6
CONTINUOUS
 62
     7
 10
2.4167
 20
7.8589
 30
0
 11
2.4028
 21
7.7062
 31
0
  0
POLYLINE
  8
LAYER1
  6
CONTINUOUS
 62
     7
 66
     1
 70
     0
 40
0.001
 41
0.001
  0
VERTEX
  8
LAYER1
 10
3.3611
 20
7.6923
 30
0
 70
     0
  0
VERTEX
  8
LAYER1
 10
3.3472
 20
7.6923
 30
0
 70
     0
  0
VERTEX
  8
LAYER1
 10
3.3472
 20
7.7062
 30
0
 70
     0
  0
SEQEND
  0
LINE
  8
LAYER1
  6
CONTINUOUS
 62
     7
 10
3.3333
 20
7.8589
 30
0
 11
3.3472
 21
7.7062
 31
0
  0
LINE
  8
LAYER1
  6
CONTINUOUS
 62
     7
 10
3.3611
 20
7.6923
 30
0
 11
3.375
 21
7.6923
 31
0
  0
LINE
  8
LAYER1
  6
CONTINUOUS
 62
     7
 10
3.375
 20
7.9284
 30
0
 11
3.375
 21
7.6923
 31
0
  0
ENDBLK
  8
LAYER1
  0
BLOCK
  8
LAYER1
  2
Group61
 70
     0
 10
0
 20
0
 30
0
  0
POLYLINE
  8
LAYER1
  6
CONTINUOUS
 62
     7
 66
     1
 70
     0
 40
0.001
 41
0.001
  0
VERTEX
  8
LAYER1
 10
2.375
 20
7.9284
 30
0
 70
     0
  0
VERTEX
  8
LAYER1
 10
2.375
 20
7.6923
 30
0
 70
     0
  0
VERTEX
  8
LAYER1
 10
2.3889
 20
7.6923
 30
0
 70
     0
  0
SEQEND
  0
LINE
  8
LAYER1
  6
CONTINUOUS
 62
     7
 10
3.3333
 20
7.7478
 30
0
 11
3.375
 21
7.7895
 31
0
  0
LINE
  8
LAYER1
  6
CONTINUOUS
 62
     7
 10
3.3333
 20
7.8728
 30
0
 11
3.375
 21
7.9145
 31
0
  0
LINE
  8
LAYER1
  6
CONTINUOUS
 62
     7
 10
3.2361
 20
7.9145
 30
0
 11
3.2639
 21
7.9284
 31
0
  0
LINE
  8
LAYER1
  6
CONTINUOUS
 62
     7
 10
3.0972
 20
7.9145
 30
0
 11
3.125
 21
7.9284
 31
0
  0
LINE
  8
LAYER1
  6
CONTINUOUS
 62
     7
 10
2.9722
 20
7.9145
 30
0
 11
2.9861
 21
7.9284
 31
0
  0
LINE
  8
LAYER1
  6
CONTINUOUS
 62
     7
 10
2.8333
 20
7.9145
 30
0
 11
2.8611
 21
7.9284
 31
0
  0
LINE
  8
LAYER1
  6
CONTINUOUS
 62
     7
 10
2.6944
 20
7.9145
 30
0
 11
2.7222
 21
7.9284
 31
0
  0
LINE
  8
LAYER1
  6
CONTINUOUS
 62
     7
 10
2.375
 20
7.7201
 30
0
 11
2.4028
 21
7.7478
 31
0
  0
LINE
  8
LAYER1
  6
CONTINUOUS
 62
     7
 10
2.5694
 20
7.9145
 30
0
 11
2.5972
 21
7.9284
 31
0
  0
LINE
  8
LAYER1
  6
CONTINUOUS
 62
     7
 10
2.375
 20
7.8451
 30
0
 11
2.4583
 21
7.9284
 31
0
  0
LINE
  8
LAYER1
  6
CONTINUOUS
 62
     7
 10
3.3472
 20
7.7062
 30
0
 11
3.375
 21
7.7339
 31
0
  0
LINE
  8
LAYER1
  6
CONTINUOUS
 62
     7
 10
3.3333
 20
7.8312
 30
0
 11
3.375
 21
7.8728
 31
0
  0
LINE
  8
LAYER1
  6
CONTINUOUS
 62
     7
 10
3.2778
 20
7.9145
 30
0
 11
3.3056
 21
7.9284
 31
0
  0
LINE
  8
LAYER1
  6
CONTINUOUS
 62
     7
 10
3.1389
 20
7.9145
 30
0
 11
3.1667
 21
7.9284
 31
0
  0
LINE
  8
LAYER1
  6
CONTINUOUS
 62
     7
 10
3.0139
 20
7.9145
 30
0
 11
3.0417
 21
7.9284
 31
0
  0
LINE
  8
LAYER1
  6
CONTINUOUS
 62
     7
 10
2.875
 20
7.9145
 30
0
 11
2.9028
 21
7.9284
 31
0
  0
LINE
  8
LAYER1
  6
CONTINUOUS
 62
     7
 10
2.75
 20
7.9145
 30
0
 11
2.7778
 21
7.9284
 31
0
  0
LINE
  8
LAYER1
  6
CONTINUOUS
 62
     7
 10
2.6111
 20
7.9145
 30
0
 11
2.6389
 21
7.9284
 31
0
  0
LINE
  8
LAYER1
  6
CONTINUOUS
 62
     7
 10
2.375
 20
7.8034
 30
0
 11
2.4167
 21
7.8451
 31
0
  0
ENDBLK
  8
LAYER1
  0
BLOCK
  8
LAYER1
  2
Group62
 70
     0
 10
0
 20
0
 30
0
  0
INSERT
  8
LAYER1
  2
Group60
 10
0
 20
0
 30
0
  0
INSERT
  8
LAYER1
  2
Group61
 10
0
 20
0
 30
0
  0
ENDBLK
  8
LAYER1
  0
BLOCK
  8
LAYER1
  2
Group63
 70
     0
 10
0
 20
0
 30
0
  0
INSERT
  8
LAYER1
  2
Group59
 10
0
 20
0
 30
0
  0
INSERT
  8
LAYER1
  2
Group62
 10
0
 20
0
 30
0
  0
ENDBLK
  8
LAYER1
  0
BLOCK
  8
LAYER1
  2
Group64
 70
     0
 10
0
 20
0
 30
0
  0
LINE
  8
LAYER1
  6
CONTINUOUS
 62
     7
 10
2.4861
 20
7.9145
 30
0
 11
2.5
 21
7.9284
 31
0
  0
POLYLINE
  8
LAYER1
  6
CONTINUOUS
 62
     7
 66
     1
 70
     0
 40
0.001
 41
0.001
  0
VERTEX
  8
LAYER1
 10
2.9167
 20
5.9284
 30
0
 70
     0
  0
VERTEX
  8
LAYER1
 10
2.9306
 20
5.9284
 30
0
 70
     0
  0
VERTEX
  8
LAYER1
 10
2.9583
 20
5.9145
 30
0
 70
     0
  0
VERTEX
  8
LAYER1
 10
2.9583
 20
5.9145
 30
0
 70
     0
  0
VERTEX
  8
LAYER1
 10
2.9722
 20
5.9006
 30
0
 70
     0
  0
VERTEX
  8
LAYER1
 10
2.9722
 20
5.8867
 30
0
 70
     0
  0
VERTEX
  8
LAYER1
 10
2.9722
 20
5.8867
 30
0
 70
     0
  0
VERTEX
  8
LAYER1
 10
2.9722
 20
5.8867
 30
0
 70
     0
  0
SEQEND
  0
POLYLINE
  8
LAYER1
  6
CONTINUOUS
 62
     7
 66
     1
 70
     0
 40
0.001
 41
0.001
  0
VERTEX
  8
LAYER1
 10
2.9722
 20
5.0673
 30
0
 70
     0
  0
VERTEX
  8
LAYER1
 10
2.9722
 20
5.0534
 30
0
 70
     0
  0
VERTEX
  8
LAYER1
 10
2.9722
 20
5.0395
 30
0
 70
     0
  0
VERTEX
  8
LAYER1
 10
2.9583
 20
5.0256
 30
0
 70
     0
  0
VERTEX
  8
LAYER1
 10
2.9444
 20
5.0117
 30
0
 70
     0
  0
VERTEX
  8
LAYER1
 10
2.9306
 20
5.0117
 30
0
 70
     0
  0
VERTEX
  8
LAYER1
 10
2.9167
 20
5.0117
 30
0
 70
     0
  0
SEQEND
  0
LINE
  8
LAYER1
  6
CONTINUOUS
 62
     7
 10
2.9722
 20
5.8867
 30
0
 11
2.9722
 21
5.0673
 31
0
  0
LINE
  8
LAYER1
  6
CONTINUOUS
 62
     7
 10
3
 20
5.9701
 30
0
 11
3
 21
4.9701
 31
0
  0
POLYLINE
  8
LAYER1
  6
CONTINUOUS
 62
     7
 66
     1
 70
     0
 40
0.001
 41
0.001
  0
VERTEX
  8
LAYER1
 10
2.7639
 20
5.9423
 30
0
 70
     0
  0
VERTEX
  8
LAYER1
 10
2.75
 20
5.9423
 30
0
 70
     0
  0
VERTEX
  8
LAYER1
 10
2.75
 20
5.9423
 30
0
 70
     0
  0
VERTEX
  8
LAYER1
 10
2.75
 20
5.9562
 30
0
 70
     0
  0
VERTEX
  8
LAYER1
 10
2.75
 20
5.9701
 30
0
 70
     0
  0
VERTEX
  8
LAYER1
 10
2.75
 20
5.9701
 30
0
 70
     0
  0
SEQEND
  0
LINE
  8
LAYER1
  6
CONTINUOUS
 62
     7
 10
2.9167
 20
5.9284
 30
0
 11
2.7639
 21
5.9423
 31
0
  0
POLYLINE
  8
LAYER1
  6
CONTINUOUS
 62
     7
 66
     1
 70
     0
 40
0.001
 41
0.001
  0
VERTEX
  8
LAYER1
 10
2.75
 20
4.9839
 30
0
 70
     0
  0
VERTEX
  8
LAYER1
 10
2.75
 20
4.9978
 30
0
 70
     0
  0
VERTEX
  8
LAYER1
 10
2.7639
 20
5.0117
 30
0
 70
     0
  0
SEQEND
  0
LINE
  8
LAYER1
  6
CONTINUOUS
 62
     7
 10
2.9167
 20
5.0117
 30
0
 11
2.7639
 21
5.0117
 31
0
  0
LINE
  8
LAYER1
  6
CONTINUOUS
 62
     7
 10
2.75
 20
4.9839
 30
0
 11
2.75
 21
4.9701
 31
0
  0
LINE
  8
LAYER1
  6
CONTINUOUS
 62
     7
 10
3
 20
4.9701
 30
0
 11
2.75
 21
4.9701
 31
0
  0
ENDBLK
  8
LAYER1
  0
BLOCK
  8
LAYER1
  2
Group65
 70
     0
 10
0
 20
0
 30
0
  0
LINE
  8
LAYER1
  6
CONTINUOUS
 62
     7
 10
3
 20
5.9701
 30
0
 11
2.75
 21
5.9701
 31
0
  0
LINE
  8
LAYER1
  6
CONTINUOUS
 62
     7
 10
2.8056
 20
5.0117
 30
0
 11
2.8472
 21
4.9701
 31
0
  0
LINE
  8
LAYER1
  6
CONTINUOUS
 62
     7
 10
2.9306
 20
5.0117
 30
0
 11
2.9722
 21
4.9701
 31
0
  0
LINE
  8
LAYER1
  6
CONTINUOUS
 62
     7
 10
2.9722
 20
5.1089
 30
0
 11
3
 21
5.0951
 31
0
  0
LINE
  8
LAYER1
  6
CONTINUOUS
 62
     7
 10
2.9722
 20
5.2478
 30
0
 11
3
 21
5.2201
 31
0
  0
LINE
  8
LAYER1
  6
CONTINUOUS
 62
     7
 10
2.9722
 20
5.3728
 30
0
 11
3
 21
5.3589
 31
0
  0
LINE
  8
LAYER1
  6
CONTINUOUS
 62
     7
 10
2.9722
 20
5.5117
 30
0
 11
3
 21
5.4839
 31
0
  0
LINE
  8
LAYER1
  6
CONTINUOUS
 62
     7
 10
2.9722
 20
5.6506
 30
0
 11
3
 21
5.6228
 31
0
  0
LINE
  8
LAYER1
  6
CONTINUOUS
 62
     7
 10
2.7778
 20
5.9701
 30
0
 11
2.8056
 21
5.9423
 31
0
  0
LINE
  8
LAYER1
  6
CONTINUOUS
 62
     7
 10
2.9722
 20
5.7756
 30
0
 11
3
 21
5.7478
 31
0
  0
LINE
  8
LAYER1
  6
CONTINUOUS
 62
     7
 10
2.9028
 20
5.9701
 30
0
 11
3
 21
5.8867
 31
0
  0
LINE
  8
LAYER1
  6
CONTINUOUS
 62
     7
 10
2.7639
 20
5.0117
 30
0
 11
2.8056
 21
4.9701
 31
0
  0
LINE
  8
LAYER1
  6
CONTINUOUS
 62
     7
 10
2.8889
 20
5.0117
 30
0
 11
2.9306
 21
4.9701
 31
0
  0
LINE
  8
LAYER1
  6
CONTINUOUS
 62
     7
 10
2.9722
 20
5.0673
 30
0
 11
3
 21
5.0395
 31
0
  0
LINE
  8
LAYER1
  6
CONTINUOUS
 62
     7
 10
2.9722
 20
5.2062
 30
0
 11
3
 21
5.1784
 31
0
  0
LINE
  8
LAYER1
  6
CONTINUOUS
 62
     7
 10
2.9722
 20
5.3312
 30
0
 11
3
 21
5.3034
 31
0
  0
LINE
  8
LAYER1
  6
CONTINUOUS
 62
     7
 10
2.9722
 20
5.4701
 30
0
 11
3
 21
5.4423
 31
0
  0
LINE
  8
LAYER1
  6
CONTINUOUS
 62
     7
 10
2.9722
 20
5.5951
 30
0
 11
3
 21
5.5812
 31
0
  0
LINE
  8
LAYER1
  6
CONTINUOUS
 62
     7
 10
2.9722
 20
5.7339
 30
0
 11
3
 21
5.7062
 31
0
  0
LINE
  8
LAYER1
  6
CONTINUOUS
 62
     7
 10
2.8611
 20
5.9701
 30
0
 11
2.9028
 21
5.9423
 31
0
  0
ENDBLK
  8
LAYER1
  0
BLOCK
  8
LAYER1
  2
Group66
 70
     0
 10
0
 20
0
 30
0
  0
INSERT
  8
LAYER1
  2
Group64
 10
0
 20
0
 30
0
  0
INSERT
  8
LAYER1
  2
Group65
 10
0
 20
0
 30
0
  0
ENDBLK
  8
LAYER1
  0
BLOCK
  8
LAYER1
  2
Group67
 70
     0
 10
0
 20
0
 30
0
  0
LINE
  8
LAYER1
  6
CONTINUOUS
 62
     7
 10
2.9722
 20
5.8728
 30
0
 11
3
 21
5.8451
 31
0
  0
POLYLINE
  8
LAYER1
  6
CONTINUOUS
 62
     7
 66
     1
 70
     0
 40
0.001
 41
0.001
  0
VERTEX
  8
LAYER1
 10
2.2917
 20
5.9145
 30
0
 70
     0
  0
VERTEX
  8
LAYER1
 10
2.2917
 20
5.9145
 30
0
 70
     0
  0
VERTEX
  8
LAYER1
 10
2.3056
 20
5.9423
 30
0
 70
     0
  0
VERTEX
  8
LAYER1
 10
2.3194
 20
5.9562
 30
0
 70
     0
  0
VERTEX
  8
LAYER1
 10
2.3194
 20
5.9562
 30
0
 70
     0
  0
VERTEX
  8
LAYER1
 10
2.3472
 20
5.9701
 30
0
 70
     0
  0
VERTEX
  8
LAYER1
 10
2.3611
 20
5.9701
 30
0
 70
     0
  0
SEQEND
  0
POLYLINE
  8
LAYER1
  6
CONTINUOUS
 62
     7
 66
     1
 70
     0
 40
0.001
 41
0.001
  0
VERTEX
  8
LAYER1
 10
3.375
 20
5.9701
 30
0
 70
     0
  0
VERTEX
  8
LAYER1
 10
3.3889
 20
5.9701
 30
0
 70
     0
  0
VERTEX
  8
LAYER1
 10
3.4167
 20
5.9562
 30
0
 70
     0
  0
VERTEX
  8
LAYER1
 10
3.4306
 20
5.9562
 30
0
 70
     0
  0
VERTEX
  8
LAYER1
 10
3.4444
 20
5.9423
 30
0
 70
     0
  0
VERTEX
  8
LAYER1
 10
3.4444
 20
5.9145
 30
0
 70
     0
  0
VERTEX
  8
LAYER1
 10
3.4444
 20
5.9145
 30
0
 70
     0
  0
SEQEND
  0
LINE
  8
LAYER1
  6
CONTINUOUS
 62
     7
 10
2.3611
 20
5.9701
 30
0
 11
3.375
 21
5.9701
 31
0
  0
LINE
  8
LAYER1
  6
CONTINUOUS
 62
     7
 10
2.25
 20
5.9978
 30
0
 11
3.5
 21
5.9978
 31
0
  0
POLYLINE
  8
LAYER1
  6
CONTINUOUS
 62
     7
 66
     1
 70
     0
 40
0.001
 41
0.001
  0
VERTEX
  8
LAYER1
 10
2.2917
 20
5.7339
 30
0
 70
     0
  0
VERTEX
  8
LAYER1
 10
2.2778
 20
5.7201
 30
0
 70
     0
  0
VERTEX
  8
LAYER1
 10
2.2639
 20
5.7201
 30
0
 70
     0
  0
SEQEND
  0
LINE
  8
LAYER1
  6
CONTINUOUS
 62
     7
 10
2.2917
 20
5.9145
 30
0
 11
2.2917
 21
5.7339
 31
0
  0
POLYLINE
  8
LAYER1
  6
CONTINUOUS
 62
     7
 66
     1
 70
     0
 40
0.001
 41
0.001
  0
VERTEX
  8
LAYER1
 10
3.4722
 20
5.7201
 30
0
 70
     0
  0
VERTEX
  8
LAYER1
 10
3.4583
 20
5.7201
 30
0
 70
     0
  0
VERTEX
  8
LAYER1
 10
3.4583
 20
5.7339
 30
0
 70
     0
  0
SEQEND
  0
LINE
  8
LAYER1
  6
CONTINUOUS
 62
     7
 10
3.4444
 20
5.9145
 30
0
 11
3.4583
 21
5.7339
 31
0
  0
LINE
  8
LAYER1
  6
CONTINUOUS
 62
     7
 10
3.4722
 20
5.7201
 30
0
 11
3.5
 21
5.7201
 31
0
  0
LINE
  8
LAYER1
  6
CONTINUOUS
 62
     7
 10
3.5
 20
5.9978
 30
0
 11
3.5
 21
5.7201
 31
0
  0
LINE
  8
LAYER1
  6
CONTINUOUS
 62
     7
 10
2.25
 20
5.7201
 30
0
 11
2.2639
 21
5.7201
 31
0
  0
ENDBLK
  8
LAYER1
  0
BLOCK
  8
LAYER1
  2
Group68
 70
     0
 10
0
 20
0
 30
0
  0
LINE
  8
LAYER1
  6
CONTINUOUS
 62
     7
 10
2.25
 20
5.9978
 30
0
 11
2.25
 21
5.7201
 31
0
  0
LINE
  8
LAYER1
  6
CONTINUOUS
 62
     7
 10
3.4583
 20
5.8034
 30
0
 11
3.5
 21
5.8589
 31
0
  0
LINE
  8
LAYER1
  6
CONTINUOUS
 62
     7
 10
3.4444
 20
5.9284
 30
0
 11
3.5
 21
5.9839
 31
0
  0
LINE
  8
LAYER1
  6
CONTINUOUS
 62
     7
 10
3.3472
 20
5.9701
 30
0
 11
3.3889
 21
5.9978
 31
0
  0
LINE
  8
LAYER1
  6
CONTINUOUS
 62
     7
 10
3.2222
 20
5.9701
 30
0
 11
3.25
 21
5.9978
 31
0
  0
LINE
  8
LAYER1
  6
CONTINUOUS
 62
     7
 10
3.0833
 20
5.9701
 30
0
 11
3.1111
 21
5.9978
 31
0
  0
LINE
  8
LAYER1
  6
CONTINUOUS
 62
     7
 10
2.9583
 20
5.9701
 30
0
 11
2.9861
 21
5.9978
 31
0
  0
LINE
  8
LAYER1
  6
CONTINUOUS
 62
     7
 10
2.8194
 20
5.9701
 30
0
 11
2.8472
 21
5.9978
 31
0
  0
LINE
  8
LAYER1
  6
CONTINUOUS
 62
     7
 10
2.6806
 20
5.9701
 30
0
 11
2.7222
 21
5.9978
 31
0
  0
LINE
  8
LAYER1
  6
CONTINUOUS
 62
     7
 10
2.5556
 20
5.9701
 30
0
 11
2.5833
 21
5.9978
 31
0
  0
LINE
  8
LAYER1
  6
CONTINUOUS
 62
     7
 10
2.25
 20
5.8034
 30
0
 11
2.2917
 21
5.8451
 31
0
  0
LINE
  8
LAYER1
  6
CONTINUOUS
 62
     7
 10
2.4167
 20
5.9701
 30
0
 11
2.4583
 21
5.9978
 31
0
  0
LINE
  8
LAYER1
  6
CONTINUOUS
 62
     7
 10
2.25
 20
5.9284
 30
0
 11
2.3194
 21
5.9978
 31
0
  0
LINE
  8
LAYER1
  6
CONTINUOUS
 62
     7
 10
3.4583
 20
5.7617
 30
0
 11
3.5
 21
5.8034
 31
0
  0
LINE
  8
LAYER1
  6
CONTINUOUS
 62
     7
 10
3.4444
 20
5.8867
 30
0
 11
3.5
 21
5.9423
 31
0
  0
LINE
  8
LAYER1
  6
CONTINUOUS
 62
     7
 10
3.3889
 20
5.9701
 30
0
 11
3.4306
 21
5.9978
 31
0
  0
LINE
  8
LAYER1
  6
CONTINUOUS
 62
     7
 10
3.2639
 20
5.9701
 30
0
 11
3.2917
 21
5.9978
 31
0
  0
LINE
  8
LAYER1
  6
CONTINUOUS
 62
     7
 10
3.125
 20
5.9701
 30
0
 11
3.1667
 21
5.9978
 31
0
  0
LINE
  8
LAYER1
  6
CONTINUOUS
 62
     7
 10
3
 20
5.9701
 30
0
 11
3.0278
 21
5.9978
 31
0
  0
LINE
  8
LAYER1
  6
CONTINUOUS
 62
     7
 10
2.8611
 20
5.9701
 30
0
 11
2.8889
 21
5.9978
 31
0
  0
LINE
  8
LAYER1
  6
CONTINUOUS
 62
     7
 10
2.7361
 20
5.9701
 30
0
 11
2.7639
 21
5.9978
 31
0
  0
LINE
  8
LAYER1
  6
CONTINUOUS
 62
     7
 10
2.5972
 20
5.9701
 30
0
 11
2.625
 21
5.9978
 31
0
  0
LINE
  8
LAYER1
  6
CONTINUOUS
 62
     7
 10
2.25
 20
5.7478
 30
0
 11
2.2917
 21
5.7895
 31
0
  0
LINE
  8
LAYER1
  6
CONTINUOUS
 62
     7
 10
2.4722
 20
5.9701
 30
0
 11
2.5
 21
5.9978
 31
0
  0
ENDBLK
  8
LAYER1
  0
BLOCK
  8
LAYER1
  2
Group69
 70
     0
 10
0
 20
0
 30
0
  0
INSERT
  8
LAYER1
  2
Group67
 10
0
 20
0
 30
0
  0
INSERT
  8
LAYER1
  2
Group68
 10
0
 20
0
 30
0
  0
ENDBLK
  8
LAYER1
  0
BLOCK
  8
LAYER1
  2
Group70
 70
     0
 10
0
 20
0
 30
0
  0
INSERT
  8
LAYER1
  2
Group66
 10
0
 20
0
 30
0
  0
INSERT
  8
LAYER1
  2
Group69
 10
0
 20
0
 30
0
  0
ENDBLK
  8
LAYER1
  0
BLOCK
  8
LAYER1
  2
Group71
 70
     0
 10
0
 20
0
 30
0
  0
LINE
  8
LAYER1
  6
CONTINUOUS
 62
     7
 10
2.25
 20
5.8867
 30
0
 11
2.3611
 21
5.9978
 31
0
  0
POLYLINE
  8
LAYER1
  6
CONTINUOUS
 62
     7
 66
     1
 70
     0
 40
0.001
 41
0.001
  0
VERTEX
  8
LAYER1
 10
2.9167
 20
3.9839
 30
0
 70
     0
  0
VERTEX
  8
LAYER1
 10
2.9306
 20
3.9839
 30
0
 70
     0
  0
VERTEX
  8
LAYER1
 10
2.9583
 20
3.9701
 30
0
 70
     0
  0
VERTEX
  8
LAYER1
 10
2.9583
 20
3.9701
 30
0
 70
     0
  0
VERTEX
  8
LAYER1
 10
2.9722
 20
3.9562
 30
0
 70
     0
  0
VERTEX
  8
LAYER1
 10
2.9861
 20
3.9284
 30
0
 70
     0
  0
VERTEX
  8
LAYER1
 10
2.9861
 20
3.9145
 30
0
 70
     0
  0
VERTEX
  8
LAYER1
 10
2.9861
 20
3.9145
 30
0
 70
     0
  0
SEQEND
  0
POLYLINE
  8
LAYER1
  6
CONTINUOUS
 62
     7
 66
     1
 70
     0
 40
0.001
 41
0.001
  0
VERTEX
  8
LAYER1
 10
2.9861
 20
2.9006
 30
0
 70
     0
  0
VERTEX
  8
LAYER1
 10
2.9861
 20
2.8867
 30
0
 70
     0
  0
VERTEX
  8
LAYER1
 10
2.9722
 20
2.8589
 30
0
 70
     0
  0
VERTEX
  8
LAYER1
 10
2.9583
 20
2.8589
 30
0
 70
     0
  0
VERTEX
  8
LAYER1
 10
2.9583
 20
2.8451
 30
0
 70
     0
  0
VERTEX
  8
LAYER1
 10
2.9306
 20
2.8312
 30
0
 70
     0
  0
VERTEX
  8
LAYER1
 10
2.9167
 20
2.8312
 30
0
 70
     0
  0
SEQEND
  0
LINE
  8
LAYER1
  6
CONTINUOUS
 62
     7
 10
2.9861
 20
3.9145
 30
0
 11
2.9861
 21
2.9006
 31
0
  0
LINE
  8
LAYER1
  6
CONTINUOUS
 62
     7
 10
3.0139
 20
4.0395
 30
0
 11
3.0139
 21
2.7895
 31
0
  0
POLYLINE
  8
LAYER1
  6
CONTINUOUS
 62
     7
 66
     1
 70
     0
 40
0.001
 41
0.001
  0
VERTEX
  8
LAYER1
 10
2.75
 20
3.9978
 30
0
 70
     0
  0
VERTEX
  8
LAYER1
 10
2.7361
 20
3.9978
 30
0
 70
     0
  0
VERTEX
  8
LAYER1
 10
2.7361
 20
4.0117
 30
0
 70
     0
  0
VERTEX
  8
LAYER1
 10
2.7361
 20
4.0117
 30
0
 70
     0
  0
SEQEND
  0
LINE
  8
LAYER1
  6
CONTINUOUS
 62
     7
 10
2.9167
 20
3.9839
 30
0
 11
2.75
 21
3.9978
 31
0
  0
POLYLINE
  8
LAYER1
  6
CONTINUOUS
 62
     7
 66
     1
 70
     0
 40
0.001
 41
0.001
  0
VERTEX
  8
LAYER1
 10
2.7361
 20
2.8034
 30
0
 70
     0
  0
VERTEX
  8
LAYER1
 10
2.7361
 20
2.8173
 30
0
 70
     0
  0
VERTEX
  8
LAYER1
 10
2.7361
 20
2.8173
 30
0
 70
     0
  0
VERTEX
  8
LAYER1
 10
2.75
 20
2.8312
 30
0
 70
     0
  0
VERTEX
  8
LAYER1
 10
2.75
 20
2.8312
 30
0
 70
     0
  0
SEQEND
  0
LINE
  8
LAYER1
  6
CONTINUOUS
 62
     7
 10
2.9167
 20
2.8312
 30
0
 11
2.75
 21
2.8312
 31
0
  0
LINE
  8
LAYER1
  6
CONTINUOUS
 62
     7
 10
2.7361
 20
2.8034
 30
0
 11
2.7361
 21
2.7895
 31
0
  0
LINE
  8
LAYER1
  6
CONTINUOUS
 62
     7
 10
3.0139
 20
2.7895
 30
0
 11
2.7361
 21
2.7895
 31
0
  0
LINE
  8
LAYER1
  6
CONTINUOUS
 62
     7
 10
2.7361
 20
4.0395
 30
0
 11
2.7361
 21
4.0117
 31
0
  0
ENDBLK
  8
LAYER1
  0
BLOCK
  8
LAYER1
  2
Group72
 70
     0
 10
0
 20
0
 30
0
  0
LINE
  8
LAYER1
  6
CONTINUOUS
 62
     7
 10
3.0139
 20
4.0395
 30
0
 11
2.7361
 21
4.0395
 31
0
  0
LINE
  8
LAYER1
  6
CONTINUOUS
 62
     7
 10
2.8194
 20
2.8312
 30
0
 11
2.8611
 21
2.7895
 31
0
  0
LINE
  8
LAYER1
  6
CONTINUOUS
 62
     7
 10
2.9444
 20
2.8451
 30
0
 11
3
 21
2.7895
 31
0
  0
LINE
  8
LAYER1
  6
CONTINUOUS
 62
     7
 10
2.9861
 20
2.9284
 30
0
 11
3.0139
 21
2.9006
 31
0
  0
LINE
  8
LAYER1
  6
CONTINUOUS
 62
     7
 10
2.9861
 20
3.0673
 30
0
 11
3.0139
 21
3.0395
 31
0
  0
LINE
  8
LAYER1
  6
CONTINUOUS
 62
     7
 10
2.9861
 20
3.1923
 30
0
 11
3.0139
 21
3.1645
 31
0
  0
LINE
  8
LAYER1
  6
CONTINUOUS
 62
     7
 10
2.9861
 20
3.3312
 30
0
 11
3.0139
 21
3.3034
 31
0
  0
LINE
  8
LAYER1
  6
CONTINUOUS
 62
     7
 10
2.9861
 20
3.4562
 30
0
 11
3.0139
 21
3.4284
 31
0
  0
LINE
  8
LAYER1
  6
CONTINUOUS
 62
     7
 10
2.9861
 20
3.5951
 30
0
 11
3.0139
 21
3.5673
 31
0
  0
LINE
  8
LAYER1
  6
CONTINUOUS
 62
     7
 10
2.9861
 20
3.7339
 30
0
 11
3.0139
 21
3.6923
 31
0
  0
LINE
  8
LAYER1
  6
CONTINUOUS
 62
     7
 10
2.8056
 20
4.0395
 30
0
 11
2.8472
 21
3.9978
 31
0
  0
LINE
  8
LAYER1
  6
CONTINUOUS
 62
     7
 10
2.9861
 20
3.8589
 30
0
 11
3.0139
 21
3.8312
 31
0
  0
LINE
  8
LAYER1
  6
CONTINUOUS
 62
     7
 10
2.9444
 20
4.0395
 30
0
 11
3.0139
 21
3.9562
 31
0
  0
LINE
  8
LAYER1
  6
CONTINUOUS
 62
     7
 10
2.7778
 20
2.8312
 30
0
 11
2.8194
 21
2.7895
 31
0
  0
LINE
  8
LAYER1
  6
CONTINUOUS
 62
     7
 10
2.9028
 20
2.8312
 30
0
 11
2.9444
 21
2.7895
 31
0
  0
LINE
  8
LAYER1
  6
CONTINUOUS
 62
     7
 10
2.9861
 20
2.8867
 30
0
 11
3.0139
 21
2.8589
 31
0
  0
LINE
  8
LAYER1
  6
CONTINUOUS
 62
     7
 10
2.9861
 20
3.0256
 30
0
 11
3.0139
 21
2.9839
 31
0
  0
LINE
  8
LAYER1
  6
CONTINUOUS
 62
     7
 10
2.9861
 20
3.1506
 30
0
 11
3.0139
 21
3.1228
 31
0
  0
LINE
  8
LAYER1
  6
CONTINUOUS
 62
     7
 10
2.9861
 20
3.2895
 30
0
 11
3.0139
 21
3.2478
 31
0
  0
LINE
  8
LAYER1
  6
CONTINUOUS
 62
     7
 10
2.9861
 20
3.4145
 30
0
 11
3.0139
 21
3.3867
 31
0
  0
LINE
  8
LAYER1
  6
CONTINUOUS
 62
     7
 10
2.9861
 20
3.5534
 30
0
 11
3.0139
 21
3.5256
 31
0
  0
LINE
  8
LAYER1
  6
CONTINUOUS
 62
     7
 10
2.9861
 20
3.6784
 30
0
 11
3.0139
 21
3.6506
 31
0
  0
LINE
  8
LAYER1
  6
CONTINUOUS
 62
     7
 10
2.7639
 20
4.0395
 30
0
 11
2.8056
 21
3.9978
 31
0
  0
LINE
  8
LAYER1
  6
CONTINUOUS
 62
     7
 10
2.9861
 20
3.8173
 30
0
 11
3.0139
 21
3.7895
 31
0
  0
ENDBLK
  8
LAYER1
  0
BLOCK
  8
LAYER1
  2
Group73
 70
     0
 10
0
 20
0
 30
0
  0
INSERT
  8
LAYER1
  2
Group71
 10
0
 20
0
 30
0
  0
INSERT
  8
LAYER1
  2
Group72
 10
0
 20
0
 30
0
  0
ENDBLK
  8
LAYER1
  0
BLOCK
  8
LAYER1
  2
Group74
 70
     0
 10
0
 20
0
 30
0
  0
LINE
  8
LAYER1
  6
CONTINUOUS
 62
     7
 10
2.9028
 20
4.0395
 30
0
 11
3.0139
 21
3.9145
 31
0
  0
POLYLINE
  8
LAYER1
  6
CONTINUOUS
 62
     7
 66
     1
 70
     0
 40
0.001
 41
0.001
  0
VERTEX
  8
LAYER1
 10
2.1667
 20
3.9701
 30
0
 70
     0
  0
VERTEX
  8
LAYER1
 10
2.1667
 20
3.9839
 30
0
 70
     0
  0
VERTEX
  8
LAYER1
 10
2.1806
 20
3.9978
 30
0
 70
     0
  0
VERTEX
  8
LAYER1
 10
2.1944
 20
4.0117
 30
0
 70
     0
  0
VERTEX
  8
LAYER1
 10
2.2083
 20
4.0256
 30
0
 70
     0
  0
VERTEX
  8
LAYER1
 10
2.2222
 20
4.0395
 30
0
 70
     0
  0
VERTEX
  8
LAYER1
 10
2.2361
 20
4.0395
 30
0
 70
     0
  0
SEQEND
  0
POLYLINE
  8
LAYER1
  6
CONTINUOUS
 62
     7
 66
     1
 70
     0
 40
0.001
 41
0.001
  0
VERTEX
  8
LAYER1
 10
3.5139
 20
4.0395
 30
0
 70
     0
  0
VERTEX
  8
LAYER1
 10
3.5278
 20
4.0395
 30
0
 70
     0
  0
VERTEX
  8
LAYER1
 10
3.5556
 20
4.0256
 30
0
 70
     0
  0
VERTEX
  8
LAYER1
 10
3.5556
 20
4.0117
 30
0
 70
     0
  0
VERTEX
  8
LAYER1
 10
3.5694
 20
3.9978
 30
0
 70
     0
  0
VERTEX
  8
LAYER1
 10
3.5694
 20
3.9839
 30
0
 70
     0
  0
VERTEX
  8
LAYER1
 10
3.5694
 20
3.9701
 30
0
 70
     0
  0
SEQEND
  0
LINE
  8
LAYER1
  6
CONTINUOUS
 62
     7
 10
2.2361
 20
4.0395
 30
0
 11
3.5139
 21
4.0395
 31
0
  0
POLYLINE
  8
LAYER1
  6
CONTINUOUS
 62
     7
 66
     1
 70
     0
 40
0.001
 41
0.001
  0
VERTEX
  8
LAYER1
 10
2.1667
 20
3.7617
 30
0
 70
     0
  0
VERTEX
  8
LAYER1
 10
2.1528
 20
3.7478
 30
0
 70
     0
  0
VERTEX
  8
LAYER1
 10
2.1389
 20
3.7478
 30
0
 70
     0
  0
SEQEND
  0
LINE
  8
LAYER1
  6
CONTINUOUS
 62
     7
 10
2.1667
 20
3.9701
 30
0
 11
2.1667
 21
3.7617
 31
0
  0
POLYLINE
  8
LAYER1
  6
CONTINUOUS
 62
     7
 66
     1
 70
     0
 40
0.001
 41
0.001
  0
VERTEX
  8
LAYER1
 10
3.5972
 20
3.7478
 30
0
 70
     0
  0
VERTEX
  8
LAYER1
 10
3.5833
 20
3.7478
 30
0
 70
     0
  0
VERTEX
  8
LAYER1
 10
3.5833
 20
3.7617
 30
0
 70
     0
  0
SEQEND
  0
LINE
  8
LAYER1
  6
CONTINUOUS
 62
     7
 10
3.5694
 20
3.9701
 30
0
 11
3.5833
 21
3.7617
 31
0
  0
LINE
  8
LAYER1
  6
CONTINUOUS
 62
     7
 10
2.125
 20
4.0673
 30
0
 11
3.625
 21
4.0673
 31
0
  0
POLYLINE
  8
LAYER1
  6
CONTINUOUS
 62
     7
 66
     1
 70
     0
 40
0.001
 41
0.001
  0
VERTEX
  8
LAYER1
 10
2.125
 20
4.0673
 30
0
 70
     0
  0
VERTEX
  8
LAYER1
 10
2.125
 20
3.7478
 30
0
 70
     0
  0
VERTEX
  8
LAYER1
 10
2.1389
 20
3.7478
 30
0
 70
     0
  0
SEQEND
  0
LINE
  8
LAYER1
  6
CONTINUOUS
 62
     7
 10
3.5972
 20
3.7478
 30
0
 11
3.625
 21
3.7478
 31
0
  0
ENDBLK
  8
LAYER1
  0
BLOCK
  8
LAYER1
  2
Group75
 70
     0
 10
0
 20
0
 30
0
  0
LINE
  8
LAYER1
  6
CONTINUOUS
 62
     7
 10
3.625
 20
4.0673
 30
0
 11
3.625
 21
3.7478
 31
0
  0
LINE
  8
LAYER1
  6
CONTINUOUS
 62
     7
 10
3.5833
 20
3.8034
 30
0
 11
3.625
 21
3.8451
 31
0
  0
LINE
  8
LAYER1
  6
CONTINUOUS
 62
     7
 10
3.5694
 20
3.9284
 30
0
 11
3.625
 21
3.9839
 31
0
  0
LINE
  8
LAYER1
  6
CONTINUOUS
 62
     7
 10
3.5417
 20
4.0256
 30
0
 11
3.5833
 21
4.0673
 31
0
  0
LINE
  8
LAYER1
  6
CONTINUOUS
 62
     7
 10
3.4167
 20
4.0395
 30
0
 11
3.4444
 21
4.0673
 31
0
  0
LINE
  8
LAYER1
  6
CONTINUOUS
 62
     7
 10
3.2778
 20
4.0395
 30
0
 11
3.3194
 21
4.0673
 31
0
  0
LINE
  8
LAYER1
  6
CONTINUOUS
 62
     7
 10
3.1389
 20
4.0395
 30
0
 11
3.1806
 21
4.0673
 31
0
  0
LINE
  8
LAYER1
  6
CONTINUOUS
 62
     7
 10
3.0139
 20
4.0395
 30
0
 11
3.0556
 21
4.0673
 31
0
  0
LINE
  8
LAYER1
  6
CONTINUOUS
 62
     7
 10
2.875
 20
4.0395
 30
0
 11
2.9167
 21
4.0673
 31
0
  0
LINE
  8
LAYER1
  6
CONTINUOUS
 62
     7
 10
2.75
 20
4.0395
 30
0
 11
2.7778
 21
4.0673
 31
0
  0
LINE
  8
LAYER1
  6
CONTINUOUS
 62
     7
 10
2.6111
 20
4.0395
 30
0
 11
2.6528
 21
4.0673
 31
0
  0
LINE
  8
LAYER1
  6
CONTINUOUS
 62
     7
 10
2.4861
 20
4.0395
 30
0
 11
2.5139
 21
4.0673
 31
0
  0
LINE
  8
LAYER1
  6
CONTINUOUS
 62
     7
 10
2.125
 20
3.8034
 30
0
 11
2.1667
 21
3.8589
 31
0
  0
LINE
  8
LAYER1
  6
CONTINUOUS
 62
     7
 10
2.3472
 20
4.0395
 30
0
 11
2.3889
 21
4.0673
 31
0
  0
LINE
  8
LAYER1
  6
CONTINUOUS
 62
     7
 10
2.125
 20
3.9423
 30
0
 11
2.1806
 21
3.9978
 31
0
  0
LINE
  8
LAYER1
  6
CONTINUOUS
 62
     7
 10
2.2083
 20
4.0256
 30
0
 11
2.25
 21
4.0673
 31
0
  0
LINE
  8
LAYER1
  6
CONTINUOUS
 62
     7
 10
3.5833
 20
3.7617
 30
0
 11
3.625
 21
3.8034
 31
0
  0
LINE
  8
LAYER1
  6
CONTINUOUS
 62
     7
 10
3.5694
 20
3.8867
 30
0
 11
3.625
 21
3.9423
 31
0
  0
LINE
  8
LAYER1
  6
CONTINUOUS
 62
     7
 10
3.5556
 20
4.0117
 30
0
 11
3.625
 21
4.0673
 31
0
  0
LINE
  8
LAYER1
  6
CONTINUOUS
 62
     7
 10
3.4583
 20
4.0395
 30
0
 11
3.4861
 21
4.0673
 31
0
  0
LINE
  8
LAYER1
  6
CONTINUOUS
 62
     7
 10
3.3194
 20
4.0395
 30
0
 11
3.3611
 21
4.0673
 31
0
  0
LINE
  8
LAYER1
  6
CONTINUOUS
 62
     7
 10
3.1944
 20
4.0395
 30
0
 11
3.2222
 21
4.0673
 31
0
  0
LINE
  8
LAYER1
  6
CONTINUOUS
 62
     7
 10
3.0556
 20
4.0395
 30
0
 11
3.0972
 21
4.0673
 31
0
  0
LINE
  8
LAYER1
  6
CONTINUOUS
 62
     7
 10
2.9306
 20
4.0395
 30
0
 11
2.9583
 21
4.0673
 31
0
  0
LINE
  8
LAYER1
  6
CONTINUOUS
 62
     7
 10
2.7917
 20
4.0395
 30
0
 11
2.8333
 21
4.0673
 31
0
  0
LINE
  8
LAYER1
  6
CONTINUOUS
 62
     7
 10
2.6528
 20
4.0395
 30
0
 11
2.6944
 21
4.0673
 31
0
  0
LINE
  8
LAYER1
  6
CONTINUOUS
 62
     7
 10
2.5278
 20
4.0395
 30
0
 11
2.5556
 21
4.0673
 31
0
  0
LINE
  8
LAYER1
  6
CONTINUOUS
 62
     7
 10
2.125
 20
3.7617
 30
0
 11
2.1667
 21
3.8034
 31
0
  0
LINE
  8
LAYER1
  6
CONTINUOUS
 62
     7
 10
2.3889
 20
4.0395
 30
0
 11
2.4306
 21
4.0673
 31
0
  0
LINE
  8
LAYER1
  6
CONTINUOUS
 62
     7
 10
2.125
 20
3.9006
 30
0
 11
2.1667
 21
3.9423
 31
0
  0
LINE
  8
LAYER1
  6
CONTINUOUS
 62
     7
 10
2.2639
 20
4.0395
 30
0
 11
2.2917
 21
4.0673
 31
0
  0
ENDBLK
  8
LAYER1
  0
BLOCK
  8
LAYER1
  2
Group76
 70
     0
 10
0
 20
0
 30
0
  0
INSERT
  8
LAYER1
  2
Group74
 10
0
 20
0
 30
0
  0
INSERT
  8
LAYER1
  2
Group75
 10
0
 20
0
 30
0
  0
ENDBLK
  8
LAYER1
  0
BLOCK
  8
LAYER1
  2
Group77
 70
     0
 10
0
 20
0
 30
0
  0
INSERT
  8
LAYER1
  2
Group73
 10
0
 20
0
 30
0
  0
INSERT
  8
LAYER1
  2
Group76
 10
0
 20
0
 30
0
  0
ENDBLK
  8
LAYER1
  0
BLOCK
  8
LAYER1
  2
Group78
 70
     0
 10
0
 20
0
 30
0
  0
TEXT
  8
LAYER1
 62
     7
 10
2.495
 20
0.0319
 30
0
 40
0.1389
  1
- 4-211 -
 50
0
999
Geneva
  0
LINE
  8
LAYER1
  6
CONTINUOUS
 62
     7
 10
0.1944
 20
10.8173
 30
0
 11
4.6944
 21
10.8173
 31
0
  0
TEXT
  8
LAYER1
 62
     7
 10
0.2033
 20
10.5874
 30
0
 40
0.125
  1
Combination Sections Two Channels
 50
0
999
Geneva
  0
TEXT
  8
LAYER1
 62
     7
 10
0.6061
 20
7.9346
 30
0
 40
0.0833
  1
C4x5.4/C5x6.7
 50
0
999
Geneva
  0
TEXT
  8
LAYER1
 62
     7
 10
0.62
 20
7.7541
 30
0
 40
0.0833
  1
Combo Sections
 50
0
999
Geneva
  0
TEXT
  8
LAYER1
 62
     7
 10
0.6895
 20
7.5874
 30
0
 40
0.0833
  1
Two Channels
 50
0
999
Geneva
  0
INSERT
  8
LAYER1
  2
Group7
 10
0
 20
0
 30
0
  0
TEXT
  8
LAYER1
 62
     7
 10
0.6061
 20
9.3374
 30
0
 40
0.0833
  1
C3x4.1/C4x5.4
 50
0
999
Geneva
  0
TEXT
  8
LAYER1
 62
     7
 10
0.62
 20
9.143
 30
0
 40
0.0833
  1
Combo Sections
 50
0
999
Geneva
  0
TEXT
  8
LAYER1
 62
     7
 10
0.6895
 20
8.9763
 30
0
 40
0.0833
  1
Two Channels
 50
0
999
Geneva
  0
INSERT
  8
LAYER1
  2
Group14
 10
0
 20
0
 30
0
  0
TEXT
  8
LAYER1
 62
     7
 10
0.6061
 20
6.4763
 30
0
 40
0.0833
  1
C5x6.7/C6x8.2
 50
0
999
Geneva
  0
TEXT
  8
LAYER1
 62
     7
 10
0.62
 20
6.2958
 30
0
 40
0.0833
  1
Combo Sections
 50
0
999
Geneva
  0
TEXT
  8
LAYER1
 62
     7
 10
0.6895
 20
6.1291
 30
0
 40
0.0833
  1
Two Channels
 50
0
999
Geneva
  0
INSERT
  8
LAYER1
  2
Group21
 10
0
 20
0
 30
0
  0
INSERT
  8
LAYER1
  2
Group28
 10
0
 20
0
 30
0
  0
TEXT
  8
LAYER1
 62
     7
 10
0.6061
 20
4.7958
 30
0
 40
0.0833
  1
C6x8.2/C7x9.8
 50
0
999
Geneva
  0
TEXT
  8
LAYER1
 62
     7
 10
0.62
 20
4.6013
 30
0
 40
0.0833
  1
Combo Sections
 50
0
999
Geneva
  0
TEXT
  8
LAYER1
 62
     7
 10
0.6895
 20
4.4346
 30
0
 40
0.0833
  1
Two Channels
 50
0
999
Geneva
  0
TEXT
  8
LAYER1
 62
     7
 10
0.5645
 20
3.018
 30
0
 40
0.0833
  1
C7x9.8/C8x11.5
 50
0
999
Geneva
  0
TEXT
  8
LAYER1
 62
     7
 10
0.62
 20
2.8374
 30
0
 40
0.0833
  1
Combo Sections
 50
0
999
Geneva
  0
TEXT
  8
LAYER1
 62
     7
 10
0.6895
 20
2.6708
 30
0
 40
0.0833
  1
Two Channels
 50
0
999
Geneva
  0
INSERT
  8
LAYER1
  2
Group35
 10
0
 20
0
 30
0
  0
TEXT
  8
LAYER1
 62
     7
 10
0.5228
 20
1.268
 30
0
 40
0.0833
  1
C8x11.5/C9x13.4
 50
0
999
Geneva
  0
TEXT
  8
LAYER1
 62
     7
 10
0.62
 20
1.0874
 30
0
 40
0.0833
  1
Combo Sections
 50
0
999
Geneva
  0
TEXT
  8
LAYER1
 62
     7
 10
0.6895
 20
0.9208
 30
0
 40
0.0833
  1
Two Channels
 50
0
999
Geneva
  0
INSERT
  8
LAYER1
  2
Group42
 10
0
 20
0
 30
0
  0
TEXT
  8
LAYER1
 62
     7
 10
4.2311
 20
5.1846
 30
0
 40
0.0833
  1
MC18x42.7/C15x33.9
 50
0
999
Geneva
  0
TEXT
  8
LAYER1
 62
     7
 10
4.4533
 20
4.9902
 30
0
 40
0.0833
  1
Combo Sections
 50
0
999
Geneva
  0
TEXT
  8
LAYER1
 62
     7
 10
4.5228
 20
4.8235
 30
0
 40
0.0833
  1
Two Channels
 50
0
999
Geneva
  0
INSERT
  8
LAYER1
  2
Group49
 10
0
 20
0
 30
0
  0
TEXT
  8
LAYER1
 62
     7
 10
4.9395
 20
0.2541
 30
0
 40
0.0833
  1
©1992
 50
0
999
Geneva
  0
TEXT
  8
LAYER1
 62
     7
 10
4.2311
 20
0.0874
 30
0
 40
0.0833
  1
Advanced System Design, Inc.
 50
0
999
Geneva
  0
TEXT
  8
LAYER1
 62
     7
 10
0.2589
 20
0.1013
 30
0
 40
0.0833
  1
Scale 1in = 1ft  Printed at 70%
 50
0
999
Geneva
  0
TEXT
  8
LAYER1
 62
     7
 10
0.8978
 20
8.8235
 30
0
 40
0.0833
  1
39700
 50
0
999
Geneva
  0
TEXT
  8
LAYER1
 62
     7
 10
2.245
 20
8.9346
 30
0
 40
0.0833
  1
C9x13.4/C10x15.3
 50
0
999
Geneva
  0
TEXT
  8
LAYER1
 62
     7
 10
2.3839
 20
8.7541
 30
0
 40
0.0833
  1
Combo Sections
 50
0
999
Geneva
  0
TEXT
  8
LAYER1
 62
     7
 10
2.4533
 20
8.5874
 30
0
 40
0.0833
  1
Two Channels
 50
0
999
Geneva
  0
INSERT
  8
LAYER1
  2
Group56
 10
0
 20
0
 30
0
  0
TEXT
  8
LAYER1
 62
     7
 10
2.6617
 20
8.4208
 30
0
 40
0.0833
  1
39701
 50
0
999
Geneva
  0
TEXT
  8
LAYER1
 62
     7
 10
4.7172
 20
4.6152
 30
0
 40
0.0833
  1
39702
 50
0
999
Geneva
  0
TEXT
  8
LAYER1
 62
     7
 10
0.8978
 20
7.4069
 30
0
 40
0.0833
  1
39703
 50
0
999
Geneva
  0
TEXT
  8
LAYER1
 62
     7
 10
2.2033
 20
6.9763
 30
0
 40
0.0833
  1
C10x15.3/C12x20.7
 50
0
999
Geneva
  0
TEXT
  8
LAYER1
 62
     7
 10
2.3839
 20
6.7819
 30
0
 40
0.0833
  1
Combo Sections
 50
0
999
Geneva
  0
TEXT
  8
LAYER1
 62
     7
 10
2.4533
 20
6.6152
 30
0
 40
0.0833
  1
Two Channels
 50
0
999
Geneva
  0
INSERT
  8
LAYER1
  2
Group63
 10
0
 20
0
 30
0
  0
TEXT
  8
LAYER1
 62
     7
 10
2.6617
 20
6.4624
 30
0
 40
0.0833
  1
39704
 50
0
999
Geneva
  0
TEXT
  8
LAYER1
 62
     7
 10
0.8978
 20
5.9485
 30
0
 40
0.0833
  1
39705
 50
0
999
Geneva
  0
TEXT
  8
LAYER1
 62
     7
 10
2.2033
 20
4.8374
 30
0
 40
0.0833
  1
C12x20.7/C15x33.9
 50
0
999
Geneva
  0
TEXT
  8
LAYER1
 62
     7
 10
2.3839
 20
4.643
 30
0
 40
0.0833
  1
Combo Sections
 50
0
999
Geneva
  0
TEXT
  8
LAYER1
 62
     7
 10
2.4533
 20
4.4763
 30
0
 40
0.0833
  1
Two Channels
 50
0
999
Geneva
  0
INSERT
  8
LAYER1
  2
Group70
 10
0
 20
0
 30
0
  0
TEXT
  8
LAYER1
 62
     7
 10
2.6617
 20
4.268
 30
0
 40
0.0833
  1
39706
 50
0
999
Geneva
  0
TEXT
  8
LAYER1
 62
     7
 10
0.8978
 20
4.2402
 30
0
 40
0.0833
  1
39707
 50
0
999
Geneva
  0
TEXT
  8
LAYER1
 62
     7
 10
2.1478
 20
2.643
 30
0
 40
0.0833
  1
C15x33.9/MC18x42.7
 50
0
999
Geneva
  0
TEXT
  8
LAYER1
 62
     7
 10
2.3839
 20
2.4485
 30
0
 40
0.0833
  1
Combo Sections
 50
0
999
Geneva
  0
TEXT
  8
LAYER1
 62
     7
 10
2.4533
 20
2.2819
 30
0
 40
0.0833
  1
Two Channels
 50
0
999
Geneva
  0
INSERT
  8
LAYER1
  2
Group77
 10
0
 20
0
 30
0
  0
TEXT
  8
LAYER1
 62
     7
 10
2.6617
 20
2.0735
 30
0
 40
0.0833
  1
39708
 50
0
999
Geneva
  0
TEXT
  8
LAYER1
 62
     7
 10
0.8978
 20
2.4763
 30
0
 40
0.0833
  1
39709
 50
0
999
Geneva
  0
TEXT
  8
LAYER1
 62
     7
 10
0.8978
 20
0.7402
 30
0
 40
0.0833
  1
39710
 50
0
999
Geneva
  0
ENDBLK
  8
LAYER1
  0
ENDSEC
  0
SECTION
  2
ENTITIES
  0
INSERT
  8
LAYER1
  2
Group78
 10
0
 20
0
 30
0
  0
ENDSEC
  0
EOF
